Song name
# A B C D E F G H I J K L M N O P Q R S T U V W X Y Z

Andrew Bird - Effigy chords

Highlighted       Show chord diagrams
-------------------------------------------------------------------------------
                             Effigy - Andrew Bird
-------------------------------------------------------------------------------
Tabbed by: AwesomoXD
Capo: 3

[Intro]
e--------------------------------------------|
B--------------------------------------------|
G---2--222-0---------------------------------|
D------------3-2---222-0---------------------|
A-------------------------3-2---222--3--20---|
E--------------------------------------------|


e-----------------------------------------------------------------------------|
B---------1^0-----------------------------------------------------------------|
G--2--222---------------------------------------------------------------------|
D-------------2--222-3--20--000-2-0-------------------------------------------|
A-----------------------------------3---3-2-0-000--3-20--3-333--5--7--5-3-2---|
E-----------------------------------------------------------------------------|

        C                 F
If you come to find me affable
           C        G
Build a replica for me
            C              F
Would the idea to you be laughable
      C           G
Of a pale facsimile
              C               F
So when you come to burn an effigy
          C               G
It should keep the flies away
             C                 F
And when you learn to burn this effigy
                       C               G         Am    D    Dm    G    G#(note)
It should be for the hours that slip away, slip away


F            C               G
It could be you, it could be me
            Dm                   F   
Working the door, drinking for free
         Am                    E
Carrying on with your conspiracies
            F                      F
Filling the room with a sense of unease
           G                       C      A   
Fake conversations on a nonexistent telephone
F                    G                               C       A  
Like the words of a man who's spent a little too much time alone
      Dm                     G
When one has spent too much time alone


Interlude: C F G C F C G

              C                F
So when you come to burn an effigy
            C              G
It should keep the flies away
          C              F
If you long to burn an effigy
                   C                      G          Am    D    Dm    G    G#(note)
It should be of a man whose has lost his way, slips away


F           C                G
It could be you, it could be me
            Dm                   F   
Working the door, drinking for free
         Am                    E
Carrying on with your conspiracies
            F                      F
Filling the room with a sense of unease
           G                       C     A   
Fake conversations on a nonexistent telephone
           F                    G                       C          A
Like the words of a man who's spent a little too much time all alone
     Dm                      G
When one has spent too much time alone


F Am G F
F Am G#(note) F
F Am G F
F Am G#(note) F

F G C
E G E F G B C (all notes)
Tap to rate this tab
 
# A B C D E F G H I J K L M N O P Q R S T U V W X Y Z