Song name
# A B C D E F G H I J K L M N O P Q R S T U V W X Y Z

Andrew Bird - Sovay tab

This is the part played throughout the song, during the intro and between the verses. I 
the part is played on a Xylophone, tho it's kinda fun to play on guitar if you're 
with a friend. This is my first tab, so help me out if you care to rate it.

E---------12---------7----------------|
A-13-13-15----8-8-10-----5-----3------|
D-------------------------------------|
G-------------------------------------|
B-------------------------------------|
e-------------------------------------|


Second time:

E---------12--------7----------------------|
A-13-13-15----8-8-10----3--5h6p5--3-1------|
D------------------------------------------|
G------------------------------------------|
B------------------------------------------|
e------------------------------------------|
Tap to rate this tab
 
# A B C D E F G H I J K L M N O P Q R S T U V W X Y Z