Song name
# A B C D E F G H I J K L M N O P Q R S T U V W X Y Z

Andrew Bird - Imitosis tab

Help us improve GuitareTab! Take a short survey!
----------------------------------------------------------------------------
			     Imitosis - Andrew Bird
----------------------------------------------------------------------------
Tabbed by:Dafinster
Email:

Tuning:


This pattern is used throughout the song
Main Riff

e|------5-7--|------7-8--|------5-7--|--7-5------|
B|-----------|----5------|----6------|------6----|
G|----5------|--5--------|--4--------|-----------|
D|--7--------|-----------|-----------|-----------|
A|-----------|-----------|-----------|-----------|
E|-----------|-----------|-----------|-----------|

Chords

     Am        C6        Dm        Dm6         E
e|---5----------5---------5---------7----------0--------|
B|---5----------5---------6---------6----------0--------|
G|---5----------5---------7---------7----------1--------|
D|---7----------5---------7---------7----------2--------|
A|---7----------7---------5---------5----------2--------|
E|---5----------8------------------------------0--------|


Break
                                              E / / / / / /
e|-------------------------------------------------------------|
B|------{10}---------------------------------------------------|
G|---------------------{10}-(10}-9-----------------------------|
D|---7---7----{10}-9-------------------------------------------|
A|----------------------8----8---7-----------------------------|
E|-------------8---7-------------------------------------------|

Drum lead in
Main Riff
acoustic enters 2nd time

Verse1
Am           C6          Dm          Dm6

His keeping busy, yeah he's bleeding stones,
With his machinations and his palindromes
It was anything but hear the voice
Anything but hear the voice
It was anything but hear the voice That says that we’re all basically
alone

Verse2
Am           C6          Dm          Dm6

Poor Professor Pynchon had only good intentions
When he put his Bunsen burners all away
And turned into a playground a petri dish of single cells
That would swing their fists at anything that looks like easy prey
On this nature show that rages every day
it was bound, A part his intuition

E / / / / / / / / / / / / / / / /  / / / / / / /
To say                we were all basically alone

Chorus

Am          C6            Dm           Dm6

And despite what all his studies had shown
What was mistaken for closeness was just a case for mitosis
Why do some show no mercy
While others are painfully shy?
And tell me doctor can quantify
‘Cause he just wants to know the reason, the reason

E / / / / / / / / / / /
why


Break

Solo

N/C
Why do they
Am         C6              Dm            Dm6

congregate in groups of four Scatter like a billion spores
And let the wind just carry them away?
How can kids be so mean Our famous doctor tried to gleam
As he went home at the end of the day
In this Nature show that rages every day
It was bound apart his intuition,

E / / / / / / / / / / / / / / / / / / / /
Say         We were all basically all alone

Am         C6              Dm            Dm6
Despite what all his studies had shown
What was mistaken for closeness was just a case for mitosis
She fatal doses, malcontent to osmosis
Why do some show no mercy
While others are painfully shy?
Well tell me doctor can you quantify The reason

E / / / / / / / / / / / /  /
why


Break

Outro: same pattern
Related for Imitosis tab