Song name
# A B C D E F G H I J K L M N O P Q R S T U V W X Y Z

Andrew Bird - Mx Missiles tab

Enjoy!
--Doug Mercer

Capo on 5th fret

   Bm   Bm   F#   F#     Bm   Bm   F#   F#
e|---22---22---22---22-|---22---22---22---22-|
B|---33---33---22---22-|---33---33---22---22-|
G|---44-4-44---33-3-33-|---44-4-44---33-3-33-|
D|-4---------4---------|-4---------4---------|
A|---------------------|---------------------|
E|---------------------|---------------------|

   G    G    D           F#   F#   G    G
e|---33---33---22------|-22---22------------|
B|---33---33---33------|-22---22------------|
G|---44-4-44---22------|-33-3-33---44---44--|
D|-5---------0----0234-|-----------55---55--|
A|---------------------|-----------55-5-55--|
E|---------------------|---------3----------|
  G       D       G      D                      F#
e|-----------2---|----------2---|------------------2-|
B|----------3-3--|---------3-3--|-----------------2--|
G|----0----2---2-|---0----2---2-|---1-1-1-1-2-2--3---|
D|---0-0--0------|--0-0--0------|0-2-2-0-0-2-2--4----|
A|--2---2--------|-2---2--------|--------------------|
E|-3-------------|3-------------|--------------------|
Tap to rate this tab
 
# A B C D E F G H I J K L M N O P Q R S T U V W X Y Z