Song name
# A B C D E F G H I J K L M N O P Q R S T U V W X Y Z

Andrew Bird - Gotholympian tab

			     gotholympian -andrew bird
-------------------------------------------------------------------------------
Tabbed by:Jonathan Sarenana	
Email:Sarenana1@hotmail.com
				
if the tab looks confusing just listen to the song its on fingerlings. 
He plays it on violin but most play guitar so i transcribed it.



Tuning:Standard
Capo 5th fret
				 Verse

e|-----2-----2-----2-----------------0----------2----------------------------|
B|---3-----3-----3-----------------0---0------2---2--------------------------|
G|-4-----3-----2-----------------1------1---3------3-repeatforverse----------|
D|--------------------0--2--4--2----------4----------------------------------|
A|---------------------------------------------------------------------------|
E|---------------------------------------------------------------------------|
                                
                                 Chorus 

e|-2------3--7----3--7----3--7-------------------------0----0---2------------|
B|-3----5-------4-------3--------2-holdandrepeat----0----0---2-2-------------|
G|-2------------------------------------------------2-----2---3---3-repeat---|
D|-0---------------------------------------------------------4---------------|
A|---------------------------------------------------------------------------|
E|---------------------------------------------------------------------------|

e|----2-5-3-2-5-3-2----------------------------------------------------------|
B|------------------5-3-2--thengoesintoverse---------------------------------|
G|--2------------------------------------------------------------------------|
D|-0-------------------------------------------------------------------------|
A|---------------------------------------------------------------------------|
E|---------------------------------------------------------------------------|
Tap to rate this tab
# A B C D E F G H I J K L M N O P Q R S T U V W X Y Z