Song name
# A B C D E F G H I J K L M N O P Q R S T U V W X Y Z

Andrew E - Banyo Queen tab

song : banyo queen
singer: Andrew E.
tab by: heroyuki agraviador


wala lng nakaktawa lng sya ahahhahhah    d nmn ako kumapa ni2 ung cousin ko si  IVAN 
 - IGOL   inilagay ko lng ahahha
ad nyo ko sa friendster  yuki_hee@yahoo.com
ROCK ON!! ehehe

INTRO:

|--------------------------|-----------------------------|
|--------------------------|-----------------------------|
|--------------------------|-----------------------------|
|--------------------------|-----------------------------|
|----0------4------5---5---|----0-----4-------5-----5----|
|--------------------------|-----------------------------|

|-------------------------------------|
|-------------------------------------|
|-------------------------------------|
|-------------------------------------|
|---5----4-----2--2------0-----2---2--|
|-------------------------------------|

|--------------|--------------------------|
|--------------|--------------------------|
|--------------|--------------------------|
|--------------|--------------------------|
|--2--0--------|--------2-----------------|
|---------2--2-|----2-------------5----5--|


ung sa kanta ganun din pa ulit ulit lng nmn  yan
cge  gud luk

hi to  carlo-kevz.....  ung mga cousin koh si kelvin,mac,wendell,troy,igol at nikol   
KATAY BENTE !!!!!!
ROCK ON!!!!!
Tap to rate this tab
# A B C D E F G H I J K L M N O P Q R S T U V W X Y Z