Song name
# A B C D E F G H I J K L M N O P Q R S T U V W X Y Z

Andrew E - Humanap Ka Ng Panget tab

my first tab and its rap...?!

----------------------------------------|
----------------------------------------|
----------------------------------------|
----------------0-2-0-------------------|
---0-h2-3-3-0-0-------------------------|
-3--------------------------------------|

----------------------------------------|
----------------------------------------|
----------------------------------------|
----------------0-----------------------|
---0-h2-3-3-0-0-------------------------|
-3------------------3-------------------|

repeat...
Tap to rate this tab
# A B C D E F G H I J K L M N O P Q R S T U V W X Y Z