Song name
# A B C D E F G H I J K L M N O P Q R S T U V W X Y Z

Andrew Garcia - Straight Up tab

----------------------------------------------
 "Straight Up" (Paula Abdul) - Andrew Garcia
----------------------------------------------
http://www.youtube.com/user/JustinRiray?feature=mhw4#p/a/f/0/dJBIup0M2oM

Tabbed by: Justin Riray
Youtube:   http://www.youtube.com/JustinRiray
Facebook:  http://www.facebook.com/riray

Tuning: Capo 9th (standard)

     VERSE/CHORUS        Pre-CHORUS  
e|--0--0--0--0-0---|    e|--0--0--0--0~----|  
B|--0--1--1--1-0---|    B|--0--1--1--1~----|  
G|--0--2--0--2-2---|    G|--0--2--0--2~----|  
D|--2--2--2--2-2---|    D|--2--2--2--2~----|  
A|--2--0--3--0-0---|    A|--2--0--3--0~----|  
E|--0--------------|    E|--0--------------|  
                            .  .  .  
Tap to rate this tab
 
# A B C D E F G H I J K L M N O P Q R S T U V W X Y Z