Song name
# A B C D E F G H I J K L M N O P Q R S T U V W X Y Z

Andrew Garcia - Straight Up tab

This is Andrew Garcia's cover of Straight Up by Paula Abdul. Legaci did a rendition as a 
but they pretty much use the same chords.

Capo on the 9th fret:

These are the simple chords for the whole song


||----0----0----0----0----||
||----0----1----0----0----||
||----0----0----0----0----||
||----2----2----2----1----||
||----2----0----3----0----||
||----0----x----x----2----||


Pre-Chorus: LEGACI VERSION (Andrew just plays the 4 chords a bit slower in his version)

||--0-0-0----0-----0------||
||--1-0-0----1-----0------||
||--0-0-0----0-----0------||
||--2-1-2----2-----1------||
||--0-0-3----0-----0------||
||--x-2-x----x-----2------||


That's it!
Tap to rate this tab
 
# A B C D E F G H I J K L M N O P Q R S T U V W X Y Z