Song name
# A B C D E F G H I J K L M N O P Q R S T U V W X Y Z

Andrew Garcia - I Wont Give Up tab

Listen to the song in order to get the beat! Thanks for viewing!

Andrew Garcia's Cover: https://www.youtube.com/watch?v=LBiUig4624U

Intro/Verse 1: (Palm muted)

e----x--x----x--x--x--x--x--x--|
B----x--x----x--x--x--x--x--x--|
G----x--x----x--x--x--x--x--x--|  Play 3x
D----7--7----6--6--6--6--6--6--|
A----9--9----7--7--7--7--7--7--|
E----x--x----x--x--x--x--x--x--|

e----x--x--x--x--x--x--x--x--------|
B----x--x--x--x--x--x--x--x--------|
G----x--x--x--x--x--x--x--x--------|
D----4--4--4--4--4--4--4--4--------| Repeat intro 2x
A----6--6--6--6--6--6--6--6--------|
E----x--x--x--x--x--x--x--x--------|

Chorus 1: (Palm muted) All Barre Chords

    A            E           C#m7         B
e---5------------7------------4-----------7-----------|
B---5------------9------------5-----------7-----------|
G---6------------9------------4-----------8-----------|  Play 1x
D---7------------9------------6-----------9-----------|  4 beats on each chord
A---7------------7------------4-----------9-----------|
E---5------------x------------x-----------7-----------|


Verse 2: (Palm muted)

e----x--x----x--x--x--x--x--x--|
B----x--x----x--x--x--x--x--x--|
G----x--x----x--x--x--x--x--x--|  Play 3x
D----7--7----6--6--6--6--6--6--|
A----9--9----7--7--7--7--7--7--|
E----x--x----x--x--x--x--x--x--|

e----x--x--x--x--x--x--x--x--------|
B----x--x--x--x--x--x--x--x--------|
G----x--x--x--x--x--x--x--x--------|
D----4--4--4--4--4--4--4--4--------| Repeat intro 2x
A----6--6--6--6--6--6--6--6--------|
E----x--x--x--x--x--x--x--x--------|


Chorus 2 (Open) Barre Chords

    A            E           C#m7         B
e---5------------7------------4-----------7-----------|
B---5------------9------------5-----------7-----------|
G---6------------9------------4-----------8-----------|  Play 1x
D---7------------9------------6-----------9-----------|  4 beats on each chord
A---7------------7------------4-----------9-----------|
E---5------------x------------x-----------7-----------|

Bridge:
e--x------|
B--x------|
G--x------|
D--x------|   Doesn't play anything on bridge
A--x------|
E--x------|


This was my first tab. Sorry if some things are messed up.

That's pretty much it. Thanks for viewing and feel free to leave any corrections, 
positive comments, negative comments or anything in the comment section.

Made by: 121155377 74254 (Can anyone read that?)
Tap to rate this tab
# A B C D E F G H I J K L M N O P Q R S T U V W X Y Z