Song name
# A B C D E F G H I J K L M N O P Q R S T U V W X Y Z

Andrew Gold - Lonely Boy tab

Particular favourite solo of mine, and thought it was about time I tabbed it out.

As ever, any comments good or bad are most welcome.


TAB Legend:

h	- Hammer-on 
p	- Pull-off
b	- Bend note 
r	- Return from bend
s	- Slide

e|------------------------------------------------------------|----------------------------------|
B|--------------------------17b19-r17-------------------------|----------------10----12----14----|
G|--16b18r16p14-------14-16-----------16b18r16p14-------------|-11-13-13-13-13-12b14-14b16-16b18-|
D|--------------16-14-----------------------------14h16-14h16-|----------------------------------|
A|------------------------------------------------------------|----------------------------------|
E|------------------------------------------------------------|----------------------------------|



e|-------14-14----14-16-17-16-17b19-r17-14-------------------|
B|-14-17-------17--------------------------17-14-17b19-17b19-|
G|-----------------------------------------------------------|
D|-----------------------------------------------------------|
A|-----------------------------------------------------------|
E|-----------------------------------------------------------|



e|--------------------------------------------------------|
B|-r17s19-19-19-19-19-17s19-19-19-19-19-17s19-19-19-19-19-|
G|--------------------------------------------------------|
D|--------------------------------------------------------|
A|--------------------------------------------------------|
E|--------------------------------------------------------|



e|-------17-17-17-17----17-19b21r19p17-----|-17-19b21-19b21-17-19-19b21r19p17-----------|
B|-17s19-------------19----------------19--|----------------------------------19b22-r19-|
G|-----------------------------------------|--------------------------------------------|
D|-----------------------------------------|--------------------------------------------|
A|-----------------------------------------|--------------------------------------------|
E|-----------------------------------------|--------------------------------------------|



e|-17-19-19b21-r19p17-19-19b21r19-17---------------------------------------------------------|
B|-----------------------------------19b22-r19-19b22-r19-19b22-r19-19b22-r19-19b22-r19-19b22-|
G|-------------------------------------------------------------------------------------------|
D|-------------------------------------------------------------------------------------------|
A|-------------------------------------------------------------------------------------------|
E|-------------------------------------------------------------------------------------------|



e|-------------16-17p16-17p16-----17-16-17-19-17----17-19b21r19p17----17----17-19b21-r19-|
B|-17-19-17-19-----------------------------------19----------------19----19--------------|
G|---------------------------------------------------------------------------------------|
D|---------------------------------------------------------------------------------------|
A|---------------------------------------------------------------------------------------|
E|---------------------------------------------------------------------------------------|

Tap to rate this tab
 
# A B C D E F G H I J K L M N O P Q R S T U V W X Y Z