Guitaretab - guitar tabs
Song name
# A B C D E F G H I J K L M N O P Q R S T U V W X Y Z

Andrew Jackson Jihad - Lady Killer tab

-------------------------------------------------------------------------------
Lady Killer  Andrew Jackson Jihad
-------------------------------------------------------------------------------
Email: thetruesoundofliberty@yahoo.com

Tuning:Standard

e|--------------------------------------------------------------------------|
B|---1---1---1---1---1---1--------------------------------------------------|
G|---0---0---0---0---0---0--------------------------------------------------|
D|---2---2---2---2---2---2--------------------------------------------------|
A|-3-------3-------3-------3------2-----------------------------------------|
E|-----3-------3-------3------3-5-------------------------------------------|

e|-----------------------------3---3----------------------------------------|
B|---1---1---1---1---1---1-----3---3----------------------------------------|
G|---0---0---0---0---0---0-----0---0----------------------------------------|
D|---2---2---2---2---2---2-----0---0----------------------------------------|
A|-3-------3-------3-------3---2---2----------------------------------------|
E|-----3-------3-------3-------3---3----------------------------------------|

e|-----------------------------1--1--1--1-----------------------------------|
B|---1---1---1---1---1---1-----1--1--1--1-----------------------------------|
G|---0---0---0---0---0---0-----1-2--2--2-----------------------------------|
D|---2---2---2---2---2---2-----3--3--3--3-----------------------------------|
A|-3-------3-------3-------3---3--3--3--3-----------------------------------|
E|-----3-------3-------3-------1--1--1--1-----------------------------------|

e|-----------------------------3---3----------------------------------------|
B|---1---1---1---1---1---1-----3---3----------------------------------------|
G|---0---0---0---0---0---0-----0---0----------------------------------------|
D|---2---2---2---2---2---2-----0---0----------------------------------------|
A|-3-------3-------3-------3---2---2----------------------------------------|
E|-----3-------3-------3-------3---3----------------------------------------|

e|-----------------------------1--1--1--1--3--3--3--3-----------------------|
B|---1---1---1---1---1---1-----1--1--1--1--3--3--3--3-----------------------|
G|---0---0---0---0---0---0-----2-2--2--2--4--4--4--4-----------------------|
D|---2---2---2---2---2---2-----3--3--3--3--5--5--5--5-----------------------|
A|-3-------3-------3-------3---3--3--3--3--5--5--5--5-----------------------|
E|-----3-------3-------3-------1--1--1--1--3--3--3--3-----------------------|

e|--------------------------------------------------------------------------|
B|---1---1---1---1---1---1--------------------------------------------------|
G|---0---0---0---0---0---0--------------------------------------------------|
D|---2---2---2---2---2---2--------------------------------------------------|
A|-3-------3-------3-------3------2-----------------------------------------|
E|-----3-------3-------3------3-5-------------------------------------------|
[ Tab from: http://www.guitaretab.com/a/andrew-jackson-jihad/116667.html ]
e|-----------------------------3---3----------------------------------------|
B|---1---1---1---1---1---1-----3---3----------------------------------------|
G|---0---0---0---0---0---0-----0---0----------------------------------------|
D|---2---2---2---2---2---2-----0---0----------------------------------------|
A|-3-------3-------3-------3---2---2----------------------------------------|
E|-----3-------3-------3-------3---3----------------------------------------|

e|-----------------------------1--1--1--1--3--3--3--3-----------------------|
B|---1---1---1---1---1---1-----1--1--1--1--3--3--3--3-----------------------|
G|---0---0---0---0---0---0-----2-2--2--2--4--4--4--4-----------------------|
D|---2---2---2---2---2---2-----3--3--3--3--5--5--5--5-----------------------|
A|-3-------3-------3-------3---3--3--3--3--5--5--5--5-----------------------|
E|-----3-------3-------3-------1--1--1--1--3--3--3--3-----------------------|

e|--------------------------------------------------------------------------|
B|---1---1---1---1---1---1--------------------------------------------------|
G|---0---0---0---0---0---0--------------------------------------------------|
D|---2---2---2---2---2---2--------------------------------------------------|
A|-3-------3-------3-------3------2-----------------------------------------|
E|-----3-------3-------3------3-5-------------------------------------------|

e|-----------------------------3---3----------------------------------------|
B|---1---1---1---1---1---1-----3---3----------------------------------------|
G|---0---0---0---0---0---0-----0---0----------------------------------------|
D|---2---2---2---2---2---2-----0---0----------------------------------------|
A|-3-------3-------3-------3---2---2----------------------------------------|
E|-----3-------3-------3-------3---3----------------------------------------|

e|-----------------------------1--1--1--1--3--3--3--3-----------------------|
B|---1---1---1---1---1---1-----1--1--1--1--3--3--3--3-----------------------|
G|---0---0---0---0---0---0-----2-2--2--2--4--4--4--4-----------------------|
D|---2---2---2---2---2---2-----3--3--3--3--5--5--5--5-----------------------|
A|-3-------3-------3-------3---3--3--3--3--5--5--5--5-----------------------|
E|-----3-------3-------3-------1--1--1--1--3--3--3--3-----------------------|

e|--------------------------------------------------------------------------|
B|---1---1---1---1---1---1---1---1------------------------------------------|
G|---0---0---0---0---0---0---0---0------------------------------------------|
D|---2---2---2---2---2---2---2---2------------------------------------------|
A|-3-------3-------3-------3------------------------------------------------|
E|-----3-------3-------3-------3--------------------------------------------|

e|-1--1--1--1--3--3--3--3---------------------------------------------------|
B|-1--1--1--1--3--3--3--3---------------------------------------------------|
G|-2-2--2--2--4--4--4--4---------------------------------------------------|
D|-3--3--3--3--5--5--5--5---------------------------------------------------|
A|-3--3--3--3--5--5--5--5---------------------------------------------------|
E|-1--1--1--1--3--3--3--3---------------------------------------------------|

e|--------------------------------------------------------------------------|
B|---1---1---1---1---1---1---------1----------------------------------------|
G|---0---0---0---0---0---0---------0----------------------------------------|
D|---2---2---2---2---2---2---------2----------------------------------------|
A|-3-------3-------3-------3-------3----------------------------------------|
E|-----3-------3-------3-------3--------------------------------------------|
Related for Lady Killer tab