Song name
# A B C D E F G H I J K L M N O P Q R S T U V W X Y Z

Andrew Jackson Jihad - Murderer tab

guitar intro:
e----------------------------------------|
B----------------------------------------|
G----------------------------------------|    x4
D-5-5-5---5------------------------------|
A-------5-------5-8-8-8-8----------------|
E----------------------------------------|

Bass part: Repeat through the whole song
G-----------------------------|
D-5-5-5---5-----5-8-8-8-8-----|
A-------5---------------------|
E-----------------------------|
Tap to rate this tab
 
# A B C D E F G H I J K L M N O P Q R S T U V W X Y Z