Song name
# A B C D E F G H I J K L M N O P Q R S T U V W X Y Z

Andrew Jackson Jihad - The Michael Jordan Of Drunk Driving chords

Highlighted       Show chord diagrams
Artist: Andrew Jackson Jihad
Album: Knife Man
Key: E Major
Tabber: Michael McElligott



***CAPO ON 2nd FRET****


Chords (relative to the capo).  Chords in parenthesis are what you hear, chords 
outside of parenthesis are the chord shape you're using:

    D(E)  A(B)  G(A)     Bm(C#m)  Gm(Am)
e|--2-----0-----3--------2--------3------||
B|--3-----2-----3--------3--------3------||
G|--2-----2-----0--------4--------3------||
D|--0-----2-----0--------4--------5------||
A|--------0-----2--------2--------5------||
E|--------------3-----------------3------||


Brief into riff:

|------------||
|------------||
|------------||
|--0--0--2---||
|------------||
|------------||
  The Michael...



    D                A                 G  
...Jordan of drunk driving played his final game tonight
     D               A            G 
And burning by his loneliness he wanted to feel alive
     Bm                 A                 D      A     Gm
His laziness filled the pyramids and his solitude was a knife
             D               A                 G    A      D
The Michael Jordan of drunk driving played his final game tonight
Tap to rate this tab
# A B C D E F G H I J K L M N O P Q R S T U V W X Y Z