Song name
# A B C D E F G H I J K L M N O P Q R S T U V W X Y Z

Andrew Jackson Jihad - Distance tab

Highlighted       Show chord diagrams
intro: B E B E G#m B G#m F# x2



          B                      G#m
The first month after you left I drank and jerked off till I slept.
          E           F#               B
I went to work when I had to then came home.
                                   G#m
I fed the dog when I had to, I fed myself when I had to.
              E           F#                    B
I went out of town when I had to, and then came home.

      E                    F#
And I know this won't last forever
        B                    G#m                       E
but god dammit it feels like forever since we've been together,
              Em
till we'll be together again.

intro


       B                       G#m
Second month after you left, I still felt real depressed
             E               F#                 B
but I've got plenty of other things to spend my time on.
                                                 G#m
I hate whiny fucking songs like this but I can't afford a therapist.
E           F#       B
Sorry guys, here's a solo.




e|----------2----------------------------7-7-7-6-4-6-4\----s14-12\------11-|
B|7-4-7-4-7/--4-7-5-4\--------4------------------------7-4--------12-14/---|
G|--------------------6-4-4-6--6-4\----------------------------------------|
D|--------------------------------6p4--------------------------------------|
A|-------------------------------------------------------------------------|
E|-------------------------------------------------------------------------|


e|12--9-------9-11-9\---12s16-14-------------------------------------------|
B|------12-12/-------12/---------------------------------------------------|
G|-------------------------------------------------------------------------|
D|-------------------------------------------------------------------------|
A|-------------------------------------------------------------------------|
E|-------------------------------------------------------------------------|



         E            F#                B                G#m
And it's harder to be yourself, than it is to be anybody else.
E                 F#                G#m
I wish that I was someone closer to you.
      E                    F#
And I know this won't last forever
        B         F#         G#m            F#         E
but god dammit it feels like forever since we've been together,
              Em
till we'll be together again.

WHOO


intro x2

single strums:B E B E G#m B 
G#m F# x2 B


this should be correct, and there might be some stupid notation errors in the solo. have fun!
Tap to rate this tab
# A B C D E F G H I J K L M N O P Q R S T U V W X Y Z