Song name
# A B C D E F G H I J K L M N O P Q R S T U V W X Y Z

Andrew Jackson Jihad - Skate Park tab

intro:
E||---------------------------------|
B||---------------------------------|
G||--5--5--5------------------------|
D||--5--5--5--------5--5--3--2--0---|
A||--3--3--3--2--0--5-------------3-|
E||-----------------3---------------| (x4)


then:
E||--------------------------|----------------------------------|
B||--------------------------|----------------------------------|
G||--5--5--5--5--9--9--9--9--|--14--14--12--12--10--10--10--10--|
D||--5--5--5--5--9--9--9--9--|--14--14--12--12--10--10--10--10--|
A||--3--3--3--3--7--7--7--7--|--12--12--10--10---8---8---8---8--|
E||--------------------------|----------------------------------|

--------------------------|-------------------------------||
--------------------------|-------------------------------||
--5--5--5--5--9--9--9--9--|--14--14--12--12--10-----------||
--5--5--5--5--9--9--9--9--|--14--14--12--12--10-----------||
--3--3--3--3--7--7--7--7--|--12--12--10--10---8-----------||
--------------------------|-------------------------------||

^repeat that for verse


then at "break break break my bones:" lay this baby down:
E||--------------------------|--------------------------||
B||--------------------------|--------------------------||
G||--2--2--2--2--5--5--5--5--|--------------------------||
D||--2--2--2--2--5--5--5--5--|--5--5--5--5--3--3--3--3--||
A||--0--0--0--0--3--3--3--3--|--5--5--5--5--3--3--3--3--||
E||--------------------------|--3--3--3--3--1--1--1--1--||

then its back to the verse riff and repeat the whole shindig

then at 'its a sin and a shame' play this:
E||--------------------------|--------------------------|
B||--------------------------|--------------------------|
G||--------------2--2--2--2--|--------------------------|
D||--3--3--3--3--2--2--2--2--|--5--5--5--5--3--3--3--3--|
A||--3--3--3--3--0--0--0--0--|--5--5--5--5--3--3--3--3--|
E||--1--1--1--1--------------|--3--3--3--3--1--1--1--1--|

--------------------------|--------------------------||
--1--1--1--1--------------|--------------------------||
--1--1--1--1--5--5--5--5--|--------------------------||
--3--3--3--3--5--5--5--5--|--5--5--5--5--5--5--5--5--||
--3--3--3--3--3--3--3--3--|--5--5--5--5--5--5--5--5--||
--1--1--1--1--------------|--3--3--3--3--3--3--3--3--||

and finally we reach the 'stick stick stick to your guns part' which is of course 
that same as the 'break break break my bones' progression.

happy jamming amigos.
Tap to rate this tab
# A B C D E F G H I J K L M N O P Q R S T U V W X Y Z