Song name
# A B C D E F G H I J K L M N O P Q R S T U V W X Y Z

Andrew Kenny - Hailey tab

Help us improve GuitareTab! Take a short survey!
Hailey
Andrew Kenny of: The American Analog Set

     The timing can be tricky, but just listen to the song and play along.

Tuning: Standard

Verse:
*Note that the last chord of the chorus is exactly like the first, just with a 7 on the E

   D                       Bm                      Aadd9       G

e|-----------------------------------------------------------------------|
B|-----------------------------------------------------------------------|
G|-0-0--0-0-0--0-0--0-0-0--0-0--0-0-0--0-0--0-0------0--0-0--------------|
D|-4-4--4-4-4--4-4--4-4-4\-0-0--0-0-0--0-0--0-0h2----2--2-2p0--0-0--0-0--|
A|-5-5--5-5-5--5-5--5-5-5\-2-2--2-2-2--2-2--2-2----0-0--0-0----2-2--2-2--|
E|-------------------------------------------------------------3-3--3-3--|

  D

---------------------|
---------------------|
--0-0--0-0--0-0--0-0-|
--4-4--4-4--4-4--4-4-|
--5-5--5-5--5-5--5-5-|
--7-7--7-7--7-7--7-7-|


Chorus:

   Aadd9           Bm

e|---------------------------------|
B|-------0-------0-------0-------0-|
G|---x-x-----x-x-----4-4-----4-4---|
D|---2-2-----2-2-----4-4-----4-4---|
A|-0-0-0---0-0-0---2-2-2---2-2-2---|
E|---------------------------------|


AK////
Related for Hailey tab