Song name
# A B C D E F G H I J K L M N O P Q R S T U V W X Y Z

Andrew Kenny - Church Mouse In The Church House tab

-------------------------------------------------------------------------------
	          CHURCH MOUSE IN THE CHURCH HOUSE - Andrew Kenny
-------------------------------------------------------------------------------
Tabbed by: abuckner28
Band URL: www.amanset.com/

I got tired of looking for this song so I decided to tab it myself.  This is a song from
album "HOME Vol. V" that features Andrew Kenny of American Analog Set and Ben Gibbard
Death Cab for Cutie.

Tuning: Standard

  Intro & "Does he know..."
e|------------------------------------------------|
B|--------------------3---------------------------|
G|--------------------2---------------------------| x4
D|--------------------0---------------------------|
A|--3-3--3/5---5---0------0---3---3---2p0---------|
E|--1-1--1/3---3---0------0---1---1---------3/5---|


  "You could be a little church mouse..."
e|--------------------0----|
B|--------------------3----|
G|--2-2--2/4--4-4-----2----| x4
D|--0-0--0/0--0-0-----0----|
A|--3-3--3/5--5-5--0-----0-|
E|--1-1--1/3--3-3--0-----0-|


e|----------------------0---0------------------------------------------|
B|----------------------3---3------------------------------------------|
G|--2-2-------------4---2---2---------------2--------------------------| x2
D|--0-0-------------0---0---0---------------0--------------------------|
A|--3-3---3/7\5-----5-----0---0--5--5/7--0--3--3/5--3--2--0-------0----|
E|--1-1----------3--3-----------------------1----------------3/5--5--0-|


  "But you couldn't keep a little church mouse..."
  (The more open strings you hit here the better)
e|--------------------0----|
B|--------------------3----|
G|--2-2--2/4--4-4-----2----| x4
D|--0-0--0/0--0-0-----0----|
A|--3-3--3/5--5-5--0-----0-|
E|--1-1--1/3--3-3--0-----0-|


  (Again, hit lots of open strings - with menace)
e|----------------------0---0----------------------------------------------------|
B|----------------------3---3----------------------------------------------------|
G|--2-2-------------4---2---2---------------2------------------------------------|x2
D|--0-0-------------0---0---0---------------0------------------------------------|
A|--3-3---3/7\5-----5-----0---0--5--5/7--0--3--3/5--3--2--0-------0--------------|
E|--1-1----------3--3-----------------------1----------------3/5--5--5\3--2h3--0-|


  Outro & "Does he know..."
e|------------------------------------------------|
B|--------------------3---------------------------|
G|--------------------2---------------------------| x4
D|--------------------0---------------------------|
A|--3-3--3/5---5---0------0---3---3---2p0---------|
E|--1-1--1/3---3---0------0---1---1---------3/5---|


  "Does he know he could'a saved me..."
e|----------------------|
B|--------------------3-|
G|--------------------2-| x4
D|--------------------0-|
A|--3-3--3/5---5---0----|
E|--1-1--1/3---3---0----|

| /  slide up
| \  slide down
| h  hammer-on
| p  pull-off
| ~  vibrato
| +  harmonic
| x  Mute note
===============================================================================
Tap to rate this tab
 
# A B C D E F G H I J K L M N O P Q R S T U V W X Y Z