Song name
# A B C D E F G H I J K L M N O P Q R S T U V W X Y Z

Andrew Lloyd Webber - Phantom Of The Opera tab

Alright guys, this is about as advanced as it gets for PotO. This is one that I came up 
and it matches the song to a T. I hate to toot my own horn, but it's advanced stuff, so 
is the kind that you'll have to practice at a lot before you get it.

Anywho, this is the one I came up with. Standard tuning and all.


e|-5------5-4-3-2-1------1-2-3-4-5------5-4-3-2-1------1-2-3-4-5-0-3-4-5-0-3-|
B|---------------------------------------------------------------------------|
G|---------------------------------------------------------------------------|
D|---------------------------------------------------------------------------|
A|---------------------------------------------------------------------------|
E|---------------------------------------------------------------------------|

e|-4-5-0-3-4-5-4-3-2-1-----0-1-----0-1------0-1-2-3-4-5-0-3-4-5-0-3-4-5-0-3-4|
B|-----------------------1-3-----1-3-----1-3---------------------------------|
G|---------------------------------------------------------------------------|
D|---------------------------------------------------------------------------|
A|---------------------------------------------------------------------------|
E|---------------------------------------------------------------------------|

e|-5-4-3-2-1-----0-1-----0-1-----0-1-2-3-4-5---------------------------------|
B|-----------1-3-----1-3-----1-3-------------------------3---1----------1----|
G|-----------------------------------------------------2---2---3-3----0---0-2|
D|--------------------------------------------------0---------------0--------|
A|---------------------------------------------------------------------------|
E|---------------------------------------------------------------------------|

e|------------------------------------1-5--3-3-----3-8-3-5--------5-10----9-8|
B|------3---1-----------1-----------3----------------------------------------|
G|----2---2---3-3-----0---0-2-----2-------------0------------0---------------|
D|-0---------------0-----------0-------------------------------0-------------|
A|---------------------------------------------------------------------------|
E|---------------------------------------------------------------------------|

e|-7-6-5-4-3-2---------------------------------------------------------------|
B|-------------4-4----4-4--3-3-----------------------------------------------|
G|---------------------------------------------------------------------------|
D|---------------------------------------------------------------------------|
A|---------------------------------------------------------------------------|
E|---------------------------------------------------------------------------|

Repeat this 2 times, and then:

e|--------0-0------------5-----------0-0------------5------------------------|
B|-3-3---------3-3--3-3-------3-3---------3-3--3-3---------------------------|
G|---------------------------------------------------------------------------|
D|---------------------------------------------------------------------------|
A|---------------------------------------------------------------------------|
E|---------------------------------------------------------------------------|


It may seem simple, but it's not. Just remember to play along with the tempo, practice, 
you should have no problem with this.
Tap to rate this tab
# A B C D E F G H I J K L M N O P Q R S T U V W X Y Z