Song name
# A B C D E F G H I J K L M N O P Q R S T U V W X Y Z

Andrew Lloyd Webber - Angel Of Music tab

-------------------------------------------------------------------------------
              Angel of Music - Andrew Lloyd Webber
-------------------------------------------------------------------------------
by mara5a (mara5a@centrum.cz)
This tab is based on Lord Amish's tab, it is in fact the same tab but edited for a 
little more comfy play.

| /  slide up
| \  slide down
| h  hammer-on
| p  pull-off
| ~  vibrato
| +  harmonic
| x  Mute note
| ( ) alternative way of playing the note


e|--7--5-3-5------5------7--5-3--------3~-------------------------------------|
B|-----------7-5----7------------3---0----------------------------------------| x2
G|--------------------7~------------(4)---------------------------------------|
D|----------------------------------------------------------------------------|
A|----------------------------------------------------------------------------|
E|----------------------------------------------------------------------------|

e|---------------------------------------------------------------7--5~~-------|
B|-8-7-5---------5~----5---------------8-7-5---------5~---5-7-8---------------|
G|-------7-5-4-4---------7-5-5-4-2-4~--------7-5-4-4~~~-----------------------|
D|------------------------------(7)-------------------------------------------|
A|----------------------------------------------------------------------------|
E|----------------------------------------------------------------------------|

e|--7--5-3-5------5------7--5-3--------3~-------------------------------------|
B|-----------7-5----7------------3---0----------------------------------------| x2
G|--------------------7~------------(4)---------------------------------------|
D|----------------------------------------------------------------------------|
A|----------------------------------------------------------------------------|
E|----------------------------------------------------------------------------|


e|---------------------------------------------------------------7--5~~-------|
B|-8-7-5---------5~----5---------------8-7-5---------5~---5-7-8---------------|
G|-------7-5-4-4---------7-5-5-4-2-4~--------7-5-4-4~~~-----------------------|
D|------------------------------(7)-------------------------------------------|
A|----------------------------------------------------------------------------|
E|----------------------------------------------------------------------------|

e|--7--5-3-5------5------7--5-3--------3~-------------------------------------|
B|-----------7-5----7------------3---0----------------------------------------| x2
G|--------------------7~------------(4)---------------------------------------|
D|----------------------------------------------------------------------------|
A|----------------------------------------------------------------------------|
E|----------------------------------------------------------------------------|

e|---------------------------------------------------------------7--5~~-------|
B|-8-7-5---------5~----5---------------8-7-5---------5~---5-7-8---------------|
G|-------7-5-4-4---------7-5-5-4-2-4~--------7-5-4-4~~~-----------------------|
D|------------------------------(7)-------------------------------------------|
A|----------------------------------------------------------------------------|
E|----------------------------------------------------------------------------|

On the last phrase of the repeat in the ending, which is below, slow down and get softer 
minding style...
e|--7--5-3-5------5------7--5-3--------3~-------------------------------------|
B|-----------7-5----7------------3---0----------------------------------------| x2
G|--------------------7~------------(4)---------------------------------------|
D|----------------------------------------------------------------------------|
A|----------------------------------------------------------------------------|
E|----------------------------------------------------------------------------|
Tap to rate this tab
# A B C D E F G H I J K L M N O P Q R S T U V W X Y Z