Song name
# A B C D E F G H I J K L M N O P Q R S T U V W X Y Z

Andrew Lloyd Webber - Think Of Me tab

Hey everyone! This is my second tab, I'll do a chord and vocal version too. Comment corrections and please
 rate. :)

                              Think of me


    D       A           G       A7    D      A         G       A7
e|--2-3-2---0-0-0--5-0--------10-5--3-2-3-2--0-0-0-5-0-------10-5------------|
B|----------------------3-3-3--------------------------3-3-3-----------------|
G|---------------------------------------------------------------------------|
D|---------------------------------------------------------------------------|
A|---------------------------------------------------------------------------|
E|---------------------------------------------------------------------------|
    Bm          F#7           Bm7       E7     D        Bm   A G A7 A D
e|--2-3-2-3-2-3-2-3-2--6-9-12-12-10-7-2-0---0--2-3-2--7-5-2--0-2-3-----------|
B|----------------------------------------3-------------------------2-3------|
G|---------------------------------------------------------------------------|
D|---------------------------------------------------------------------------|
A|---------------------------------------------------------------------------|
E|---------------------------------------------------------------------------|

Hope you enjoyed ;D
Tap to rate this tab
# A B C D E F G H I J K L M N O P Q R S T U V W X Y Z