Song name
# A B C D E F G H I J K L M N O P Q R S T U V W X Y Z

Andrew Osenga - Too Far To Walk tab

Song: Too Far to Walk
Artist: Andrew Osenga
Album: Photographs
words and music by Andrew Osenga
 2002 Andrew Osenga Wrote These Songs


- standard tuning / capo 4th fret -

This is just a very basic idea to work with. Andrew might use an alternative
tuning, but it also sounds good played in standard this way.

VERSES:

  D      A4/7   D?
e-2---2--0---0----------------|
B---------------3---3------3--|
G---2------0-----------0h2----|
D-0------2--------4-----------|
A---------------0-------------|
E-----------------------------|
  Jesus, Jesus, Jesus,

  D      A4/7   D?
e-2---2--0---0---------0------|
B---------------3---3---------|
G---2------0------------------|
D-0------2--------4-----------|
A---------------0-------------|
E-----------------------------|
I did what I planned to do,

  Em7  D/F#   G(maj7)
e-0----0------0-h-2-----------|
B-3----3------3---3-----------|
G-0----2------0---0-----------|
D-2----0------0---0-----------|
A-2----0------x---x-----------|
E-0----2------3---3-----------|
and I feel like I knew I would feel.

  Em7  A     A4  A        A7
e-0--------------0--------3---|
B-3----2-----2h3---2------2---|
G-0------2-----------2----2---|
D-2--------2-----------2--2---|
A-2----0-----------0----------|
E-0---------------------------|
Now I want to come back to you.


My mind is thick and it's dirty.
My heart, it ran to hide.
My plans proved I don't know what I'm doing,
cause I used to feel alive.

           G                A
There's an angel on my left shoulder,
    D                G
and ten devils on my right.
Em7                        D/F#   G(maj7)
Jesus, you'll have to come get me,
Em7                          A  A4  A  A7
cause it's too far to walk tonight.
Tap to rate this tab
 
# A B C D E F G H I J K L M N O P Q R S T U V W X Y Z