Andrew Peterson - Dancing In The Minefields tab

Entire song. Its really easy once you figure it out.

Capo 1

INTRO
e|--------------------------------|
B|----1-----1--------1-----1------|
G|---0-0---0-----0--0-0---0----0--|
D|--2---2h3--2h3---2---2h3--2h3---| x 2
A|-3--------------0---------------|
E|--------------------------------|

VERSE 1 (play same tempo as intro)

"Well, I was 19 you were 21                       The year we got engaged
e|------------------------------------------------------------------0-----|
B|-----------1---------------1----1----1-----1-----------1---------1---1--|
G|---------0----0-----------0----0----0-0---0----0-----0----------2---2---|
D|-------2---------------2h3--2h3----2---2h3--2h3-------------0--3---3----|
A|-----3----------------------------3----------------0--------------------|
E|-----------------------------------------------------------3--1---------|

And everyone said we were much too young              But we did it anyway
e|---------------------------------------------------------------------0--|
B|--------1--------------------1-----1----1-----1-----1-------1-------1---|
G|------0----------------0----0-----0----0-0---0-----0-------0-------2----|
D|----2--------------------2h3---2h3----2---2h3---2h3-------------0-3-----|
A|--3----------------------------------3--------------------0-------------|
E|---------------------------------------------------------------3-1------|

We got the rings for 40 each from a pawn shop down the road
e|-------------------------------------------------------------0----------|
B|-----------3-----------1------------------------------------1-----------|
G|---------0----------0-----------------------0--------------2------------|
D|-----0---------------------------------2------------------3-------------|
A|------------------0--------------3--------------------------------------|
E|-3-------------------------------------------------------1--------------|

We said our vows and took the leap not 15 years ago


CHORUS
And we went dancing in the mine-fields    We went sailing in the storms
e|-------------------------------------0---------------------------------0|
B|---------------------1----1--------1-----------------------1----1-----1-|
G|-----------------0-------0-------2----------------------0------0-----2--|
D|-------------2--------------0--3--------------------2-------------0-3---|
A|----------3-------------0----------------------3--------------0---------|
E|---------------------------3--1----------------------------------3-1----|

And it was harder than we dreamed but i believe that's what the promise is
e|------------------------------------------------------------------------|
B|--------------------1---------1---------1------------1-------------1----|
G|----------------0-----------0---------0-----------0-------0------0------|
D|------------2-----------2h3-------2h3----------2-------------2h3-----2h3|
A|--------3-----------------------------------0---------------------------|
E|------------------------------------------------------------------------|

       for
e|--------------------------------------|
B|---1----1-----1----1----1-----1----1--|
G|-0-----0-0---0----0----0-0---0----0---|
D|------2---2h3--2h3----2---2h3--2h3----|
A|-----3---------------0----------------|
E|--------------------------------------|

Verse 2
"I do" are the two most famous last words
The beginning of the end
But to lose your life for another I've heard
Is a good place to begin
Cause the only way to find your life
Is to lay your own life down
And I believe its an easy price for the
Life that we have found
Tap to rate this tab
 
# A B C D E F G H I J K L M N O P Q R S T U V W X Y Z