Song name
# A B C D E F G H I J K L M N O P Q R S T U V W X Y Z

Andrew Ripp - Forever After Love tab

There are no Tabs for this song yet, so this is the basics that i could pick up from 
ear. There's more that he plays but it's just filler that you can add yourself.

(/ - hammer on)
(\ - pull off)

INTRO
      (F)
|---------------------------------------------------------------|
|-----------------------------1------1--------------------------|
|--/2------------3----------3---3-0-/2--------(X2)--------------|
|-------3-----------0---/2--2--------3--3-----------------------|
|-----3-3--3-------3--3--------------3--------------------------|
|--1-----------1-1------1------------1-1------------------------|

VERSE
|---------------------------------------------------------1--------1--------------------------|
|-------------------------------1----------1----------------2-2------2-2------0--------0------|
|--/2----------/2-----------------3-3--------3-3--(x2)---3---3----3---3-------0--0-0---0--0-0-|
|--------3-----------3--------3----3-----3----3--------0--------0----------------0--------0---|
|-------3--3--------3--3\0--1----------1------------------------------------------------------|
|--1----------1-1----------------------------------------------------------3----------3-------|

--------------------|
---3-------1--------|
--3--3-3--0--0-0----|
------0-------2-----|
-1-------3----------|
--------------------|

CHORUS
|--------------------------------------------------------------------------------------------|
|-------3-----------3-------------3----------3-------------------------------1---------1-----|
|------3--3-3------3--3-3-------3---3-3-----3---3-3-----2--------2------------3-3-------3-3--|
|----------3-----------3--------------3-----------3-----3--3-3---3--3-3----2---2-----2----2--|
|---1------------1------------1------------1----------------3--------3----3---------3--------|
|------------------------------------------------------1--------1----------------------------|

  Back to Intro
Tap to rate this tab
# A B C D E F G H I J K L M N O P Q R S T U V W X Y Z