Song name
# A B C D E F G H I J K L M N O P Q R S T U V W X Y Z

Andrew Ryan - Id Follow You tab

Artist: Andrew Ryan
Song: Iíd Follow You
Album: Paris EP
Tuning: Standard

www.andrewryanmusic.com

Video Reference: http://www.youtube.com/watch?v=gIz3DqtZO_0

Rate and Comment!

Intro

e |----------------------------------------2-----|
B |-----0-----0-----0-----0-----2-----2----2-----|
G |---------------2-----2-----2-----2------2-----|
D |---2-----2---3-----3-----2-----2--------------|
A |-4-----4--------------------------------------| 	
E |----------------------------------------------|

e |-------0h2-------0h2-------0h1--|
B |-----3-----3-------------2------|
G |---2-----------2-------2--------|
D |-0-----------0-------0----------|
A |--------------------------------| 	
E |--------------------------------|

Verse 1 (x2)

e |----------------------------------------2-----|
B |-----0-----0-----0-----0-----2-----2----2-----|
G |---------------2-----2-----2-----2------2-----|
D |---2-----2---3-----3-----2-----2--------------|
A |-4-----4--------------------------------------| 	
E |----------------------------------------------|

e |-------0h2-------0h2-------0h1--|
B |-----3-----3-------------2------|
G |---2-----------2-------2--------|
D |-0-----------0-------0----------|
A |--------------------------------| 	
E |--------------------------------|

I canít remember the last time that I felt this way
Maybe Iíve never felt this way before
I donít know what to say or what to do when Iím around you
But I know that the feeling I have is true

Pre-Chorus

e |-2---2---2---2---2---1------|
B |-2---2---2---2---3---3------|
G |-2---2---2---2---2---2------|
D |-4---3---2---0---0---0------|
A |-4---4---4---0---0---0------| 	
E |-2---2---2---x---x---x------|

What can I say?
What can I do?
To let you know that your dreams can come true
If you let me, 
I wanna let you see
And time ticks on by, and I donít know why youíre letting it slip away
Can you feel this?
Why donít you feel this way?

Chorus

e |-0---4---2---4-----|
B |-2---5---3---5-----| (x2)
G |-2---4---2---4-----| 
D |-2---6---4---6-----|
A |-0---4---2---4-----| 	
E |-x---x---x---x-----|

Iíd follow you to the end of time
If you would be mine, if you would be mine 
And Iíd walk through fire and brimstone baby, to get to you, to get to you

e |--5------|
B |--5------|
G |--6------|
D |--5------|
A |--7------| 	
E |--5------|

Verse 2 (x2)
The fire still burns, as my heart relearns
The lyrics of love can be heard
Can you hear them? Feel the rhythm?
No

Pre-Chorus
The timing is wrong, but the love in this song will carry on and on
Can you feel the melody?
Donít you hear the notes I sing

Chorus

Bridge

e |-x---x--x---x---x---x---2---x---2---x---1----|
B |-0---x--0---x---2---x---2---x---3---x---2----|
G |-2---x--2---x---2---x---2---x---2---x---2----|
D |-3---x--3---x---2---x---x---x---x---x---x----|
A |-4---x--x---x---x---x---x---x---x---x---x----| 	
E |-x---x--x---x---x---x---x---x---x---x---x----|


Chorus

e |-0---4---2---4-----|
B |-2---5---3---5-----| (x2)
G |-2---4---2---4-----| 
D |-2---6---4---6-----|
A |-0---4---2---4-----| 	
E |-x---x---x---x-----|

Iíd follow you to the end of time
If you would be mine, if you would be mine 
And Iíd walk through fire and brimstone baby, to get to you, to get to you

e |--5------|
B |--5------|
G |--6------|
D |--5------|
A |--7------| 	
E |--5------|

Outro

e |----------------------------------------2-----|
B |-----0-----0-----0-----0-----2-----2----2-----|
G |---------------2-----2-----2-----2------2-----|
D |---2-----2---3-----3-----2-----2--------------|
A |-4-----4--------------------------------------| 	
E |----------------------------------------------|

e |-------0h2-------0h2-------0h1--|
B |-----3-----3-------------2------|
G |---2-----------2-------2--------|
D |-0-----------0-------0----------|
A |--------------------------------| 	
E |--------------------------------|

End on

e |--2------|
B |--2------|
G |--2------|
D |--4------|
A |--4------| 	
E |--2------|

Tap to rate this tab
 
# A B C D E F G H I J K L M N O P Q R S T U V W X Y Z