Song name
# A B C D E F G H I J K L M N O P Q R S T U V W X Y Z

Andrew W K - Party Hard tab

ANDREW WK
PARTY HARD (GUITAR 1)
STANDARD TUNING

This is my first tab so go easy on it
Andrew WK = Legend

Intro    
                         
E  :----------------|----------------|	Play 4 times
B  :----------------|----------------|
G  :----------------|----------------|
D  :2-2-2-2-2-2-2-2-|2-2-2-2-2-2-2-2-|
A  :2-2-2-2-2-2-2-2-|2-2-2-2-2-2-2-2-|
E  :0-0-0-0-0-0-0-0-|0-0-0-0-0-0-0-0-|

                                                                       
E  :----------------|----------------|----------------|----------------|	Play 2 times
B  :----------------|----------------|----------------|----------------|
G  :----------------|----------------|----------------|4-4-4-*-2-------|
D  :2-2-2-2-2-2-2-2-|2-2-2-2-2-2-2-2-|2-2-2-2-2-2-2-2-|4-4-4-*-2-------|
A  :2-2-2-2-2-2-2-2-|2-2-2-2-2-2-2-2-|2-2-2-2-2-2-2-2-|2-2-2-*-0-------|
E  :0-0-0-0-0-0-0-0-|0-0-0-0-0-0-0-0-|0-0-0-0-0-0-0-0-|----------------|

                                                                       
E  :----------------|----------------|----------------|----------------|
B  :----------------|----------------|----------------|----------------|
G  :------------4-*-|----------------|------------6-*-|4-4-4---4-8---9-|
D  :2-2-2-2-2-*-4-*-|7-7-7-*-6-6-6-6-|4-4-4-4-4-*-6-*-|4-4-4---4-8---9-|
A  :2-2-2-2-2-*-2-*-|7-7-7-*-6-6-6-6-|4-4-4-4-4-*-4-*-|2-2-2---2-6---7-|
E  :0-0-0-0-0-*-----|5-5-5-*-4-4-4-4-|2-2-2-2-2-*-----|----------------|

                                                                       
E  :----------------|----------------|----------------|----------------|
B  :----------------|----------------|----------------|----------------|
G  :------------4-*-|----------------|------------6-*-|4-4-9-*---------|
D  :2-2-2-2-2-*-4-*-|7-7-7-*-6-6-6-6-|4-4-4-4-4-*-6-*-|4-4-9-*-2-------|
A  :2-2-2-2-2-*-2-*-|7-7-7-*-6-6-6-6-|4-4-4-4-4-*-4-*-|2-2-7-*-2-------|
E  :0-0-0-0-0-*-----|5-5-5-*-4-4-4-4-|2-2-2-2-2-*-----|--------0-------|




Verse 
                                                              
E  :----------------|----------------|----------------|----------------|	Play 2 times
B  :----------------|----------------|----------------|----------------|
G  :------------4-*-|----------------|------------6-*-|4-4-4---4-8---9-|
D  :2-2-2-2-2-*-4-*-|7-7-7-*-6-6-6-6-|4-4-4-4-4-*-6-*-|4-4-4---4-8---9-|
A  :2-2-2-2-2-*-2-*-|7-7-7-*-6-6-6-6-|4-4-4-4-4-*-4-*-|2-2-2---2-6---7-|
E  :0-0-0-0-0-*-----|5-5-5-*-4-4-4-4-|2-2-2-2-2-*-----|----------------|

 


Pre- Chorus  
                                                     
E  :--------------------------|------------------|------------------------|
B  :--------------------------|------------------|------------------------|
G  :--------------------------|------------------|------------------------|
D  :--------------------------|------------------|------------------------|
A  :--------------------------|------------------|------------------------|
E  :12-0-12-10~-~-~-~0-10-8~-~|-~-~0-8---0-------|10-0-10-8~-~-~-~0-8-7~-~|

                                                                 
E  :-------------------|----------------------|------------------|
B  :-------------------|----------------------|------------------|
G  :-------------------|----------------------|------------------|
D  :-------------------|----------------------|------------------|
A  :-------------------|----------------------|------------------|
E  :-~-~0-12---0-------|8-0-8-7~-~-~-~0-7-5~-~|-~-~0-5---0-------|



Chorus  
                          
E  :----------------|----------------|----------------|----------------|
B  :----------------|----------------|----------------|----------------|
G  :----------------|----8---9-------|----------------|----------------|
D  :7-7-7-9-*-9-*-9-|*-9-8---9-------|2-2-2-2-2-2-2-2-|7---7-7-7-7-7-7-|
A  :7-7-7-9-*-9-*-9-|*-9-6---7-------|2-2-2-2-2-2-2-2-|7---7-7-7-7-7-7-|
E  :5-5-5-7-*-7-*-7-|*-7-------------|0-0-0-0-0-0-0-0-|5---5-5-4-5-5-5-|

                                                                       
E  :----------------|----------------|----------------|----------------|
B  :----------------|----------------|----------------|----------------|
G  :----------------|--------7---7---|----------------|----------------|
D  :2-2-2-2-2-2-2-2-|7---7-7-7---7---|2-2-2-2-2-2-2-2-|7---7-7-7-7-7-7-|
A  :2-2-2-2-2-2-2-2-|7---7-7-5---5---|2-2-2-2-2-2-2-2-|7---7-7-7-7-7-7-|
E  :0-0-0-0-0-0-0-0-|5---5-5---------|0-0-0-0-0-0-0-0-|5---5-5-4-5-5-5-|

                                                                       
E  :----------------|----------------|----------------|----------------|
B  :----------------|----------------|----------------|----------------|
G  :----------------|--------9-*-9-9-|----------------|----------------|
D  :2-2-2-2-2-2-2-2-|7-*-9-*-9-*-9-9-|2-2-2-7-----6-7-|2-2-2-7-----6-7-|
A  :2-2-2-2-2-2-2-2-|7-*-9-*-7-*-6-7-|2-2-2-7-----6-7-|2-2-2-7-----6-7-|
E  :0-0-0-0-0-0-0-0-|5-*-7-*---------|0-0-0-5-----4-5-|0-0-0-5-----4-5-|

                                                                       
E  :----------------|----------------|----------------|----------------|
B  :----------------|----------------|----------------|----------------|
G  :----------------|------9-----9-9-|----------------|----------------|
D  :2-2-2-7-----6-7-|7-7-7-9-----9-9-|2-2-2-7-----6-7-|2-2-2-7-----6-7-|
A  :2-2-2-7-----6-7-|7-7-7-7-----6-7-|2-2-2-7-----6-7-|2-2-2-7-----6-7-|
E  :0-0-0-5-----4-5-|5-5-5-----------|0-0-0-5-----4-5-|0-0-0-5-----4-5-|



Interlude 
                       
E  :----------------|----------------|----------------|----------------|
B  :----------------|----------------|----------------|----------------|
G  :----------------|----4---9-------|----------------|----------------|
D  :2-2-2-7-----6-7-|4-4-4---9-------|2-2-2-2-2-2-2-2-|2-2-2-2-2-2-2-2-|
A  :2-2-2-7-----6-7-|4-4-2---7-------|2-2-2-2-2-2-2-2-|2-2-2-2-2-2-2-2-|
E  :0-0-0-5-----4-5-|2-2-------------|0-0-0-0-0-0-0-0-|0-0-0-0-0-0-0-0-|

                                                                       
E  :----------------|----------------|----------------|----------------|
B  :----------------|----------------|----------------|----------------|
G  :----------------|4-4-4-*-2-------|----------------|----------------|
D  :2-2-2-2-2-2-2-2-|4-4-4-*-2-------|2-2-2-2-2-2-2-2-|2-2-2-2-2-2-2-2-|
A  :2-2-2-2-2-2-2-2-|2-2-2-*-0-------|2-2-2-2-2-2-2-2-|2-2-2-2-2-2-2-2-|
E  :0-0-0-0-0-0-0-0-|----------------|0-0-0-0-0-0-0-0-|0-0-0-0-0-0-0-0-|

                                                                       
E  :----------------|----------------|----------------|----------------|
B  :----------------|----------------|----------------|----------------|
G  :----------------|4-4-4-*-2-------|*---------------|----------------|
D  :2-2-2-2-2-2-2-2-|4-4-4-*-2-------|*---------------|----------------|
A  :2-2-2-2-2-2-2-2-|2-2-2-*-0-------|*---------------|----------------|
E  :0-0-0-0-0-0-0-0-|----------------|----------------|----------------|



                                                                       
Verse (Play 4 times)

 
                                                                         
Pre-Chorus (Play once)


                                                                     
Chorus (Play once)

  

Outro
                                                                    
E  :----------------|----------------|----------------|----------------|
B  :----------------|----------------|----------------|----------------|
G  :----------------|----4---9-------|----------------|----------------|
D  :2-2-2-7-----6-7-|4-4-4---9-------|2-2-2-7-----6-7-|2-2-2-7-----6-7-|
A  :2-2-2-7-----6-7-|4-4-2---7-------|2-2-2-7-----6-7-|2-2-2-7-----6-7-|
E  :0-0-0-5-----4-5-|2-2-------------|0-0-0-5-----4-5-|0-0-0-5-----4-5-|

                                                                       
E  :----------------|----------------|----------------|----------------|
B  :----------------|----------------|----------------|----------------|
G  :----------------|------9-----9-9-|----------------|----------------|
D  :2-2-2-7-----6-7-|7-7-7-9-----9-9-|2-2-2-7-----6-7-|2-2-2-7-----6-7-|
A  :2-2-2-7-----6-7-|7-7-7-7-----6-7-|2-2-2-7-----6-7-|2-2-2-7-----6-7-|
E  :0-0-0-5-----4-5-|5-5-5-----------|0-0-0-5-----4-5-|0-0-0-5-----4-5-|

                                                                       
E  :----------------|----------------|----------------|----------------|
B  :----------------|----------------|----------------|----------------|
G  :----------------|----4---9-------|----------------|----------------|
D  :2-2-2-7-----6-7-|4-4-4---9-------|2---------------|----------------|
A  :2-2-2-7-----6-7-|4-4-2---7-------|2---------------|----------------|
E  :0-0-0-5-----4-5-|2-2-------------|0---------------|----------------|


Tap to rate this tab
# A B C D E F G H I J K L M N O P Q R S T U V W X Y Z