Song name
# A B C D E F G H I J K L M N O P Q R S T U V W X Y Z

Andrew W K - Never Let Down tab

Intro
e------------|
b------------|
g------------|              play between piano breaks
d----8---8---|
a----8---8---|
e----6---6---|




Riff
e----------------------------------------------------------12-12-12-12---12---11----9--------------|
b------------------/11-11--11-----12---12----------------------------------------------------------|
g--------------------------------------------------------------------------------------------------|
d--------------------------------------------------------------------------------------------------|
a--------------------------------------------------------------------------------------------------|
e--------------------------------------------------------------------------------------------------|


e--9---11----9-------------------------------------------------------------------------------------|
b------------------12---11---9--------------------9-9-9-9---9-----------12---11--------------------|
g-------------------------------------------------------------------11-----------------------------|
d--------------------------------------------------------------------------------------------------|
a--------------------------------------------------------------------------------------------------|
e--------------------------------------------------------------------------------------------------|


e----------------------------------------12-12-12-12---12-11---9----------9---11---9---------------|
b--11-11-11-11---11-12---12--------------------------------------------------------------12---11---|
g--------------------------------------------------------------------------------------------------|
d--------------------------------------------------------------------------------------------------|
a--------------------------------------------------------------------------------------------------|
e--------------------------------------------------------------------------------------------------|





e------------------12-11-9----9-11-9---------------------------------------------------------------|
b-----9---------------------12---------------------------------------------------------------------|
g--------------------------------------------------------------------------------------------------|
d--------------------------------------------------------------------------------------------------|
a--------------------------------------------------------------------------------------------------|
e--------------------------------------------------------------------------------------------------|

IS NOT ALL THE SONG BUT IS A GOOD PART...
Tap to rate this tab
 
# A B C D E F G H I J K L M N O P Q R S T U V W X Y Z