Song name
# A B C D E F G H I J K L M N O P Q R S T U V W X Y Z

Andrew W K - Ready To Die tab

Can't seem to find a correct guitar tab of "Ready To Die" 
in standard tuning, so f-in aye - here ya' are. 

e|--------------------------------------------------|
B|--------------------------------------------------|
G|--7---------------6-7-----------------------------|
D|----7--4---7--4-4-------------5-4------7-7--------|
A|--------------------------5-5-------7-------4-5---|
E|--------------------------------------------------|

... and repeat whilst preparing for massive 
whiplash-headbang and epileptic seizure-like dancing!

e|--------------------------------------------------|
B|--------------------------------------------------|
G|--7---------------6-7-----------------------------|
D|----7--4---7--4-4-------------5-4------7-7--------|
A|--------------------------5-5-------7---------4-5-|
E|--------------------------------------------------|
Tap to rate this tab
# A B C D E F G H I J K L M N O P Q R S T U V W X Y Z