Song name
# A B C D E F G H I J K L M N O P Q R S T U V W X Y Z

Andrew W K - Fun Night tab

intro
E|-------|
B|-------|
G|-------|
D|-7-7-0-|
A|-7-7-0-|
D|-7-7-0-|

Riff 1
E|---------------------------------------|
B|---------------------------------------|
G|---------------------xx-7-7-----xx-7-7-|
D|-0-0-5-5-0-0-5-5-7-7-xx-7-7-5-5-xx-7-7-|
A|-0-0-5-5-0-0-5-5-7-7-xx-5-5-5-5-xx-5-5-|
D|-0-0-5-5-0-0-5-5-7-7-xx-----5-5-xx-----|

Riff 2a
E|-------------------------------------|
B|-------------------------------------|
G|-----------------7-7\-7-7------------|
D|-7\-0-0-7-7\-7-7-7-7\-7-7--0-0-0-5-5-|X3
A|-7\-0-0-7-7\-7-7-5-5\-5-5--0-0-0-5-5-|
D|-7\-0-0-7-7\-7-7-----------0-0-0-5-5-|

Riff 2b
E|----------------------------------|
B|----------------------------------|
G|-----------------7-7\-7-7---------|
D|-7\-0-0-7-7\-7-7-7-7\-7-7-5-5-7-7-|
A|-7\-0-0-7-7\-7-7-5-5\-5-5-5-5-7-7-|
D|-7\-0-0-7-7\-7-7----------5-5-7-7-|

Interlude
E|----------------|
B|----------------|
G|----------------|
D|-2-2-2-2-2-2...-|
A|-2-2-2-2-2-2...-|
D|-2-2-2-2-2-2...-|
pm. . . . . .
Tap to rate this tab
# A B C D E F G H I J K L M N O P Q R S T U V W X Y Z