Song name
# A B C D E F G H I J K L M N O P Q R S T U V W X Y Z

Andrew W K - Just Friends No Love tab

Help us improve GuitareTab! Take a short survey!
This Andrew Wk song was leaked for about 5 days. And for those lucky enough to download 
here is the guitar tab for it. Keyboards arranged for guitar.

Andrew wk - Just Friends (No Love)

E---------------------------------------------|
B---------------------------------------------|
G--5----------5----------------4--------------|
D--5--x16-----3--x8---5--------5--------------|
A--3----------3-------5--x8----5--x8----------|
E---------------------3--------3--------------|


E---------------------------------------------|
B---------------------------------------------|
G--5----------5----------------4--------------| x3
D--5--x8------3--x8---5--------5--------------|
A--3----------3-------5--x8----5--x8----------|
E---------------------3--------3--------------|

*heavy distortion*

E----------------------------------------------|
B----------------------------------------------|
G----------------------------------------------|x2
D---10----------3------------------------------|
A---10--x16-----3--x8--------------------------|
E---8-----------1--------13-13-13-12v----------|


E----------------------------------------------|
B----------------------------------------------|
G----------------------------------------------|
D---5----------3--------5----------------------|
A---5--x16-----3--x8----5--x8------------------|
E---3----------1--------3----------------------|

Solo is in C

Repeat
Related for Just Friends No Love tab