Song name
# A B C D E F G H I J K L M N O P Q R S T U V W X Y Z

Andrew W K - Victory Strikes Again tab

Andrew W.K.
"Victory Strikes Again"
The Wolf
Tabbed by Kevin Cruz

Standard Tunning

Intro
|----------||-----------------|----------------|
|-5--------||-----------------|----------------|
|-5--------||-----------------|----------------|
|-7--------||-----------------|----------------|
|-7--------||-----------------|----------------|
|-5--------||-5-5-5-5-5-5-5-5-|5-5-5-5-5-5-5-5-|


|-----------------|-----------------------|
|-----------------|-----------------------|
|-----------------|-----------------------|
|-----------------|-7----7----3-----5-----|
|-----------------|-7----7----3-----5-----|
|-5-5-5-5-5-5-5-5-|-5----5----1-----3-----|

The Long Solo
|-----------------|-----------------------|
|-----6-5-3-------|-----6-5-3---3h5-3-3---|
|-5-5-------4-5---|-2-5-------5---------0-|
|-----------------|-----------------------|
|-----------------|-----------------------|
|-----------------|-----------------------|

|-----------------|-----------------------|
|-----6-5-3-------|-------6-5---3h5-------|
|-5-5-------4-5---|-2---5-----5-----5-4---|
|-----------------|-----------------------|
|-----------------|-----------------------|
|-----------------|-----------------------|

|---------8-7-8-10-12-|----------10-13-12-10----12-10-|
|-----5-8-------------|-13-10-13-------------13-------|
|---5-----------------|-------------------------------|
|---------------------|-------------------------------|
|---------------------|-------------------------------|
|---------------------|-------------------------------|

|-------13-12-10-------|---------13-12----10-12----------|
|----13----------12-13-|-10---13-------13-------13-12-13-|
|-12-------------------|---------------------------------|
|----------------------|---------------------------------|
|----------------------|---------------------------------|
|----------------------|---------------------------------|

ill figure out the rest later ight peace





Tap to rate this tab
# A B C D E F G H I J K L M N O P Q R S T U V W X Y Z