Song name
# A B C D E F G H I J K L M N O P Q R S T U V W X Y Z

Andrew W K - Pushing Drugs tab

E------------------------------------|
B------------------------------------|
G------------------------------------| x3
D------------------------------------|
A------------------------------------|
D--5 5-3/5-5-3/5-5-5-5\3/5 0---0-----|

E--------------------------------------------------|
B--------------------------------------------------|
G--------------------------------------------------|
D--8-10--10-10--8--10-10---8--10--8--10--8--10--12-|
A--8-10--10-10--8--10-10---8--10--8--10--8--10--12-|
D--8-10--10-10--8--10-10---8--10--8--10--8--10--12-|

E---------------------------------------|
B---------------------------------------|
G---------------------------------------| x3
D- 3/5-5-3/5-5-3/5-5-5-5\3/5-0---0------|
A--3/5-5-3/5-5-3/5-5-5-5\3/5-0---0------|
D--3/5 5-3/5-5-3/5-5-5-5\3/5 0---0------|

E--------------------------------------------------|
B--------------------------------------------------|
G--------------------------------------------------|
D--8-10--10-10--8--10-10--8--10--8--10--8--10---12-|
A--8-10--10-10--8--10-10--8--10--8--10--8--10---12-|
D- 8-10--10-10--8--10-10--8--10--8--10--8--10---12-|


E-------------------------------------------|
B-------------------------------------------|
G-------------------------------------------| x3
D-------------------------------------------|
A-------------------------------------------|
D--3/5 5-3/5-5-3/5-5-5-5\3/5 0---0----------|

E---------------------------------------------------|
B---------------------------------------------------|
G---------------------------------------------------|
D--8-10--10-10--8--10-10---8--10--8--10--8--10---12-|
A--8-10--10-10--8--10-10---8--10--8--10--8--10---12-|
D--8-10--10-10--8--10-10---8--10--8--10--8--10---12-|

E----------------------------------------|
B----------------------------------------|
G----------------------------------------|  x3
D----------------------------------------|
A----------------------------------------|
D--3/5 5-3/5-5-3/5-5-5-5\3/5 0---0-------|

E---------------------------------------------------|
B---------------------------------------------------|
G---------------------------------------------------|
D--8-10--10-10--8--10-10---8--10--8--10--8--10---12-|
A--8-10--10-10--8--10-10---8--10--8--10--8--10---12-|
D--8-10--10-10--8--10-10---8--10--8--10--8--10---12-|


Pushing Drugs Drugs Drugs Drugs
E----------------------------|----13-13-13-13-13-13-13-13-13-13-13---------|
B----------------------------|-----x--x--x--x--x--x--x--x--x--x--x---------|
G--10-12-12-12---------------|----10-10-10-10-10-10-10-10-10-10-10-10p8----|
D---x--x--x--x------x3-------|-------------------------------------------8-|
A---8-10-10-10---------------|--8------------------------------------------|
D----------------------------|---------------------------------------------|

E----------------------------|-----------------------------------------------------------------------------|
B----------------------------|-----------------------------------------------------------------------------|
G--10-12-12-12---------------|-10--/---12--12p10------10-----------10-----12-10----------------------------|
D---x--x--x--x------x3-------|---------------------12------12-10------12----------12--10-------------------|
A---8-10-10-10---------------|---------------------------------------------------------------------12--10--|
D----------------------------|-----------------------------------------------------------------------------|

And basically repeat, you can do some solo work in the key of C so its not that hard, if 
have any questions or anything, lemme know, later
Back to top
View user's profile Send private message
Tap to rate this tab
# A B C D E F G H I J K L M N O P Q R S T U V W X Y Z