Song name
# A B C D E F G H I J K L M N O P Q R S T U V W X Y Z

Andrew W K - Got To Do It tab

-------------------------------------------------------------------------------
			     SONG NAME - Band Name
-------------------------------------------------------------------------------
Tabbed by:thedevil
Email:thedevil123456789@hotmail.com
Notes:This is an amazing song by the God of Partying, Andrew W.K. I could not find a tab 
this song ANYWHERE, so I thought I would just sit down and do it myself. I may also 
the WHOLE "I Get Wet" album tab one of these days as well.
Tuning:Standard
                                Intro(Palm-Mute!)
e|---------------------------------------------------------------------------|
B|---------------------------------------------------------------------------|
G|-9-------------------------------------------------------------------------|
D|-9-------------------------------------------------------------------------|
A|-7...----------------------------------------------------------------------|
E|---------------------------------------------------------------------------|
                              First Verse part
e|---------------------------------------------------------------------------|
B|---------------------------------------------------------------------------|
G|------9-7----9-------------------------------------------------------------|
D|-7----9-7----9-7-----------------------------------------------------------|
A|-7----7-5...-7-7-----------------------------------------------------------|
E|-5...----------5...--------------------------------------------------------|
                             Second Verse part
e|---------------------------------------------------------------------------|
B|---------------------------------------------------------------------------|
G|------7---------9-7----7-9-------------------------------------------------|
D|-7----7----7----9-7----7-9-------------------------------------------------|
A|-7----5...-7----7-5...-5-7-------------------------------------------------|
E|-5...------5...------------------------------------------------------------|
                Pre-chorus(not sure about the last few chords tho...)
e|---------------------------------------------------------------------------|
B|---------------------------------------------------------------------------|
G|------6-7----6------7--6-7---7766------------------------------------------|
D|-7----6-7----6-9----7--6-7-7-7766--7-(or it is?)9--------------------------|
A|-7----4-5...-4-9----5--4-5-7-5544--7------------9--------------------------|
E|-5...----------7...--------5-------5------------7--------------------------|
                                Chorus
e|---------------------------------------------------------------------------|
B|---------------------------------------------------------------------------|
G|-------9-77777-66666-9-77777-99999-11-77777-666666-9-777777----------------|
D|-77777-9-77777-66666-9-77777-99999-11-77777-666666-9-777777----------------|
A|-77777-7-55555-44444-7-55555-77777-9--55555-444444-7-555555----------------|
E|-55555---------------------------------------------------------------------|
                                Outro
e|---------------------------------------------------------------------------|
B|---------------------------------------------------------------------------|
G|-7777-9-7777---------------------------------------------------------------|
D|-7777-9-7777-7~~~~~--------------------------------------------------------|
A|-5555-7-5555-7~~~~~--------------------------------------------------------|
E|-------------5~~~~~--------------------------------------------------------|
There ya go. not 100% about the end of the pre-chorus, but close enough. If you wanna 
me any corrections, or anything else, just feel free to use the above listed email.

| ...Play until you think it is time to move on
| /  Slide up
| \  Slide down
| h  Hammer-on
| p  Pull-off
| ~  Let ring
| +  Harmonic
| x  Mute note
===============================================================================
Tap to rate this tab
# A B C D E F G H I J K L M N O P Q R S T U V W X Y Z