Guitaretab - guitar tabs
Song name
# A B C D E F G H I J K L M N O P Q R S T U V W X Y Z

Andrew York - Emergence tab

Drop D tuning

----1-------0------------------------------0------3--------1-----------7-------|
----3-------3----2----3---------------------------3---2----3-----------8-------|
----2-3-----0----2----2----0-----2---------3--0---0---2----2-----------7-------|
----------------------3----2-----0---------0----------------------0-------0----|
------------0------------------------0----------------0---------0--------------|
----0-----------------0----------3---------5------2--------0--3--------5-------|


---3-------5-------1-------0----------------0-----------------1-----0----------|
---0-------3----------------------0--------------------------------------------|
---0---------------2-------1------1---------2---3----2----0---------0---2------|
------0----0---0------0-------0------0----------0-------------3----------------|
--------------------------------------------4--------4----1---0--1--3---4------|
---5-------3-------0-------2------2-------------3----2----1---0----------------|


---------------------0-------3---------1---------------10--------6-------5-----|
---3-------------------------2--------------------3--------------3-------3-----|
--------3---2--------1--0--------------2----0---2------0---------0-------2-----|
---3----3---2---1----0-------2----3----0----2---3------8-----------------------|
---5----4---3---2----1-------4----0------------------------^7-------^7-----^7--|
---------------------------------------0---------------0---------0-------0-----|


---1---------0--------0--------------------------------------------------------|
---3---------3--------3----2-----3---------------------------------------------|
---2---------0---3----0----2---------------0---------------0---------------0---|
-----------------0---------2------------00----h5---------0---h3----------0-----|
------^12----1--------0---------------------------0h3h5------------------------|
---0-------------5---------------0h3h5-----------------------------0h3h5-------|


-------------------------------------------------------------------------------|
-----------------------3-------------------------------------------------------|
---------------0---------------0----------------0---------------0--------------|
--h5---------0---h3----------0----h5----------0----h3---------0---h5-----------|
------0h3h5---------------------------0h33h5--------------------------0h3h5----|
-----------------------0h3h5----------------------------0h3h5------------------|


-------------------------------------------------------------------------------|
-------------------------------------------------------------------------------|
---0----------------0--------------0-----------------0----------------0--------|
-0----h3----------0---h5---------0----h3-----------0----h5----------0---h3-----|
--------------------------0h3h5------------------------------0h3h5-------------|
-----------0h3h5----------------------------0h3h5------------------------------|


---------------------------------|-----5--------------5-------3-------3--------|
---------------------------------|--------------6----------------5-------------|
------------0--------------------|*--------7------------------------5----------|
----------0---h5---------0-------|*-----------0---------------------0----------|
-------------------0h3h5---------|---------------------------------------------|
---0h3h5--------------------0----|-----0-----------0----------0----------------|


---1------------1------0------0------------------------------------------------|
----------3--------------1-----------3-----------------------------------------|
-----3---------------------2-------------------0----------------0--------------|
--------0------------------0-----------------0---h5-----------0---h3-----------|
-----------------------------------------------------0h3h5---------------------|
---0---------0---------0-------------0h3hh5------------------------------------|


-------------------------------------------------------------------------------|
------------------------------------3------------------------------------------|
---------0---------------0--------------------0-------------0------------------|
-------0----h5---------0---h3---------------0---h5--------0----h3--------------|
----------------0h3h5-------------------------------0h3h5----------------------|
-0h3h5------------------------------0h3h55---------------------------0h3h5-----|


--------------------------5-------------55------3-------3-----1------------1---|
---------------------------------6----------------5------------------3---------|
----0-----------------------0------------------------5-----------3-------------|
--0---h5---------0------------0----------------------0-------------0-----------|
----------0h3h5---------------------------------0------------------------------|
--------------------0-----8----------8------------------------0---------0------|


---0-------0-------------------------------------------------------------------|
-----1------------3------------------------------------------------------------|
--------2------------------0----------------0----------------0--------------0--|
--------0----------------0---h5-----------0---h3-----------0---h5---------0----|
----------------------------------0h3h5-----------------------------0h3h5------|
---0--------------0h3h5-----------------------------0h3h5----------------------|


-------------------------------------------------------------------------------|
----------3--------------------------------------------------------------------|
--------------------0-------------0---------------0----------------------------|
--h3--------------0---h5--------0---h3----------0---h5--------0----------------|
--------------------------0h3h5-------------------------0h3h5------------------|
----------0h3h5---------------------------0h3h5------------------0-------------|


----0--------------------------------------------------------------------------|
--------------------------------------6----------------------------------------|
-------------0---------------0------------------0----------------0-------------|
-----------0---h7----------0---h7-------------0----h7----------0---h7----------|
----0h4h7-----------0h4h7-------------0h55h8------------0h5h8------------------|
-------------------------------------------------------------------------------|


-------------------------------------------------------------------------------|
---8----------------------------------6----------------------------------------|
-------------0---------------0------------------0--------------0---------------|
-----------0---h7----------0---h7-------------0---h7---------0---h7------------|
---0h7h10-----------0h7h10------------0h55h8-----------0h5h8-------------------|
-------------------------------------------------------------------------------|


----0----------------------------------0---------------------------------------|
-------------------------------------------------------------------------------|
-------------0----------------0------------------0---------------0-------------|
-----------0----h8----------0---h8-------------0---h7----------0---h7----------|
---------------------------------------0hh4h7-----------0h4h7------------------|
----0h5h8------------0h5h8-----------------------------------------------------|


-|-----------------------------------------------------------------------------|
-|-3---------------------------------------------------------------------------|
-|----------0----------------0-----------------0---------------0---------------|
-|--------0---h5-----------0---h3------------0---h5----------0---h3------------|
-|-----------------0h3h5-----------------------------0h3h5---------------------|
-|-0h3h5-----------------------------0h3hh5------------------------------------|


--------------------------------------------------------------------|----------|
---3----------------------------------------------------------------|----------|
------------0--------------0----------------0----------------------*|----------|
----------0---h5---------0---h3-----------0---h5----------0--------*|----------|
------------------0h3h5----------------------------0h3h5------------|----------|
---0h3h5---------------------------0h3h5--------------------0-------|----------|


-------------------------------------------------------------------------------|
-------------------------------------------------------------------------------|
-------------0--------------0-----------------0-----------------0--------------|
----0------0---h5---------0----h4-----------0---h5------------0---h4-----------|
-------------------0h4h7------------------------------0h4h7--------------------|
----0h4h7---------------------------0h4h77-------------------------------------|


-------------------------------------------------------------------------------|
-------------------------------------------------------------------------------|
-------------0--------------0----------------0--------------0------------------|
----0------0---h5---------0---h4-----------0---h5---------0---h4---------------|
-------------------0h4h7-------------------------------------------------------|
----0h4h7--------------------------0h4h7-----------0h4h7-----------------------|

[ Tab from: http://www.guitaretab.com/a/andrew-york/190256.html ]
-------------------------------------------------------------------------------|
-------------------------------------------------------------------------------|
-------------0-----------------0---------------0---------------0---------------|
-----------0-----h7----------0---h7----------0---h7----------0---h7------------|
---0h5h8--------------0h5h8-----------0h55h8----------0h5h8--------------------|
-------------------------------------------------------------------------------|


--------------------------------------0----------------------------------------|
---6---------------------------------------------------------------------------|
-------------0---------------0------------------0------------------------------|
-----------0----h7---------0---h7-------------0---h7----------0----------------|
------5h9-----------0h5h9-------------0h55h7-----------0h4h7------4p0----------|
---0---------------------------------------------------------------------------|


-------------------------------------------------------------------------------|
---3---------------------------------------------------------------------------|
-----------0----------------0---------2----------------------------------------|
---------0----h5----------0---h3----------------0-----------------0------------|
--------------------0h3h5---------------------0----h5-----------0---h5---------|
---0h3h5------------------------------0h33h5-------------0h3h5-----------------|


---0---------------------------------------------------------------------------|
------------------------------------8------------------------------------------|
------------0--------------0------------------0----------------0---------------|
----------0---h7---------0---h7-------------0---h7-----------0---h7------------|
---0h4h7----------0h4h7-------------0h7h110-----------0h7h10-------------------|
-------------------------------------------------------------------------------|


-------------------------------------------------------------------------------|
---6--------------------------------------------------------------0------------|
-------------0---------------0-----------------0----------------0--------------|
-----------0---h7----------0---h7------------0---h7-----------0----------------|
------5h9-----------0h5h9------------0h5hh9------------0h5h9-------------------|
---0---------------------------------------------------------------------------|


-----7-------------------------------------------------------------------------|
--------------------------------0-------88--------------------------0----------|
-------------0----------------0------------------0----------------0------------|
-----------0---h9-----------0------------------0---h9-----------0--------------|
-------------------------------------------------------------------------------|
-----0h7h9-----------0h7h9--------------00h7h9-----------0h7h9-----------------|


-----5-------------------------------------------------------------------------|
---------------------------------------6---------------------------------------|
--------------0---------------0------------------0---------------0-------------|
------------0---h7----------0---h7-------------0---h7----------0---h7----------|
-------------------------------------------------------------------------------|
-----0h5h7-----------0h5h7-------------0hh5h7-----------0h5h7------------------|


---0---------------------------------------------------------------------------|
----------------------------------------00-------------------------------------|
-------------------------------------------------------------------------------|
------------0----------------0--------------------0---------------0------------|
----------0---h2-----------0---h2---------------0---h2----------0---h2---------|
---0h2h6------------0h2h6---------------00h2h6------------0h2h6----------------|


---0---------------------------------------------------------------------------|
-------------------------------------------------------------------------------|
------------0----------------0------------------0------------------------------|
----------0---h7-----------0---h8-------------0---h11----------0---------------|
---0h4h7-----------0h8h10------------0h100h12------------0h4h7---4p0-----------|
-------------------------------------------------------------------------------|


-------------------------------------0-----------------------------------------|
----6--------------------------------------------------------------------------|
--------------0--------------0-----------------0-------------------------------|
------------0---h7---------0---h7------------0---h7---------0------------------|
-------5h8----------0h5h8------------0h5hh7-----------0h4h7----4p0-------------|
----0--------------------------------------------------------------------------|


-------------------------------------------------------------------------------|
---3---------------------------------------------------------------------------|
-------------0---------------0---------2---------------------------------------|
-----------0---h5----------0---h3----------------0---------------0-------------|
-----------------------------------------------0---h5----------0---h5----------|
---0h3h5------------0h3h5--------------0hh3h5-----------0h3h5------------------|


---0---------------------------------------------------------------------------|
--------------------------------------8----------------------------------------|
------------0---------------0--------------------0---------------0-------------|
----------0---h7----------0---h7---------------0---h7----------0---h7----------|
---0h4h7-----------0h4h7--------------0h77h10-----------0h7h10-----------------|
-------------------------------------------------------------------------------|


-------------------------------------------------------------------------------|
----6--------------------------------------------------------------------------|
-------------0----------------0-----------------0------------------------------|
-----------0---h7-----------0---h7------------0---h7----------0----------------|
------5h9-----------0h5h9-------------0h55h9-----------0h5h9-------------------|
----0------------------------------------------------------------0-------------|


----10------------------------------------6------------------------------------|
-------------------------------------------------------------------------------|
---------------0---------------0-------------------0----------------0----------|
-------------0---h8----------0----h8-------------0----------------0------------|
-----------------------------------------------------h7----------------h7------|
-----0h7h8------------0h7h8---------------0h7h8------------0h7h8---------------|


----5--------------------------------------------------------------------------|
--------------------------------------6----------------------------------------|
-------------0--------------0-------------------0--------------0---------------|
-----------0---h7---------0----h7-------------0---h7---------0---h7------------|
-------------------------------------------------------------------------------|
----0h5h7----------0h5h7--------------0h55h7----------0h5h7--------------------|


---0---------------------------------0-----------------------------------------|
-------------------------------------------------------------------------------|
------------0----------------0-----------------0-------------------------------|
----------0---h8-----------0---h8------------0---h7----------0-----------------|
-------------------------------------0h4hh7-----------0h4h7----4p0-------------|
---0h5h8------------0h5h8------------------------------------------------------|


-------------------------------------------------------------------------------|
---3---------------------------------------------------------------------------|
------------0---------------0-----------------0--------------0-----------------|
----------0----h5---------0---h3------------0---h5---------0---h3--------------|
-------------------0h3h5----------------------------0h3h5----------------------|
---0h3h5----------------------------0h3h55-------------------------------------|


-------------------------------------------------------------------------------|
--3----------------------------------------------------------------------------|
-----------0--------------0------------------0---------------0-----------------|
---------0---h5---------0---h3-------------0---h5----------0---h3--------------|
-----------------0h3h5------------------------------0h3h5----------------------|
--0h3h5----------------------------0h3h5---------------------------------------|


-------------------------------------------------------------------------------|
--3----------------------------------------------------------------------------|
-----------0--------------0-----------------0--------------0-------------------|
---------0---h5---------0---h3------------0---h5---------0---h3----------------|
-----------------0h3h5----------------------------0h3h5------------------------|
--0h3h5---------------------------0h3h5----------------------------------------|


------------------------------------------------------------------------|-|----|
------------------------------------------------------------------------|-|----|
----------0--------------0----------------0--------------0--------------|-|----|
--------0---h5---------0---h3----------0----h5---------0---3-------0----|-|----|
----------------0h3h5---------------------------0h3h5-------------------|-|----|
--0h3h5-------------------------0h3h5------------------------------0----|-|----|
Related for Emergence tab