Guitaretab - guitar tabs
Song name
# A B C D E F G H I J K L M N O P Q R S T U V W X Y Z

Andrew York - In Sorrows Wake tab

E|-------0-----5-|-7--------7--3-------3-|-0--------0--------------|
B|----3-----6----|-------5--------0------|-------1-----1--0-----1--|
G|-5-------------|----5--------------5---|-------0-----2-----2-----|
D|---------------|-----------------------|----3--------0-----0-----|
A|---------------|-0-----------0---------|-------------------------|
D|---------------|-----------------------|-0-----------3-----------|

E|--------------0-----------|------------------0---------|
B|--3-----------5--------0--|---------------------6------|
G|--------4--5-----7--5-----|--2-------------------------|
D|-----5--------7-----------|-----2--3-----<12>----<19>--|
A|--0-----------------7-----|----------<12>--------------|
D|--------------------------|--0-------------------------|

E|--7--------8p7--3--------5p3--|--0--------0--------------|
B|--------5----------0----------|--------1-----1--0-----1--|
G|-----5----------------5-------|--------0-----2-----2-----|
D|------------------------------|-----3--------0-----0-----|
A|--0-------------0-------------|--------------------------|
D|------------------------------|--0-----------3-----------|

E|---------------0-----7--|---8------------------12--|
B|-0-------0--1-----8-----|---8--8------------13-----|
G|-0-------------0-----7--|--10----10----------------|
D|-0----0-----2----10-----|--10----------------------|
A|------------0-----7-----|---8----------------------|
D|-5----------------------|--------------------------|

E|--10--12--10----------8--10--7--|---8--------------------8-----|
B|--------------13--12------------|--10--------------------------|
G|---0-------------<12>-----------|--10--9--10-<12>-----------9--|
D|--------------------------------|---0-------------<19>---------|
A|--------------------------------|---0--------------------------|
D|--------------------------------|---0--------------------------|

E|--7--8--7--5--3--0--------|--------0-----------------|
B|--0-----------------1-----|--3--------1--3--------3--|
G|--7--9--7--5--4--0--2--2--|--2--2--------4--5--4-----|
D|-----------------------0--|--0-----------0-----------|
A|--0-----------0-----------|--------------------------|
D|--------------------------|--3-----------5-----------|
[ Tab from: http://www.guitaretab.com/a/andrew-york/283371.html ]
E|--------------------0--1--|--0--------0----------------|
B|--1--------0--1--3--------|--------------3----------1--|
G|--------2-----------------|-----5--------4-------0-----|
D|-----2--------------------|--------5-----0-------------|
A|--0-----------------------|----------------------------|
D|--------------------------|--5-----------5-------------|

E|--------------------------|-------------------------|
B|--0--1--0-----------------|----------------------0--|
G|-----------2--0-----------|--2----------------------|
D|-----------------2--------|-----4--2--0-------------|
A|--------------------2-----|--------------0----------|
D|--2--------------------2--|--0----------------------|

E|--------------------------|--0--------0-----0-----5--|
B|--1--------1--3--------3--|--5--0--------3-----6-----|
G|--0--0--------0--0--------|--4-----5-----0-----7-----|
D|--3-----3-----5-----5-----|--6-----7-----0-----------|
A|--------------------------|--0-----------2-----5-----|
D|--3-----------5-----------|--------------------------|

E|--------0-----------------|--------------------------|
B|--8-----5-----3--------6--|--5--6--8-----3--------0--|
G|-----5-----0-----0--------|--5--------5-----0--------|
D|--------------------------|--5-----------------------|
A|--7-----3-----2-----------|--3-----7-----2-----------|
D|--------------------5-----|--------------------5-----|

E|--------0------------------|-----------------------0--|
B|--1--3--5-----0---------3--|--1--0--------------1-----|
G|--2--------2--4------1-----|--2-----2--------2--------|
D|--2------------------------|-----------2--3-----------|
A|--0-----3-----7------------|--0-----------------------|
D|--------------6------2-----|--------------0-----------|

E|-------------------------||
B|--3-----0----------------||
G|-----5---------<12>------||
D|----------<12>-----------||
A|-------------------------||
D|--5----------------------||

E|-------------------------0-|--------------------------------||
B|--1--0----------------1----|--3-----0-----------------------||
G|--2-----2----------2-------|-----5---------<12>-------------||
D|-----------2--2tr3---------|----------<12>-------------<7>--||
A|--0------------------------|---------------------------<7>--||
D|--------------0------------|--5------------------------<7>--||
Related for In Sorrows Wake tab
In Sorrows Wake chords by Andrew York