Song name
# A B C D E F G H I J K L M N O P Q R S T U V W X Y Z

Andrew York - Gigue tab

"Gigue" by Andrew York from "Denouement" CD

Tabbed by Scott Gingerich - June 8, 2004 - revised revised June 25th, 2004
Scott_Gingerich@hotmail.com

(Caution: Personal interpretation - intended for private study only)

Please contact me with questions or suggestions. I urge you to purchase and
study a copy of the recording for best results with this tab for timing.
I marked off the first 38 measures to give you an idea - enjoy!

Drop D tuning, moderato
6/8 timing

  measures>|             |         |           |         |           |
E|----------0-----------------------0---------------------0--------------------|
B|--------0---0-------------------0---0-----------------0---0-----------------0|
G|------2-------2---2-----------2-------2---2---------2-------2---2---------2--|
D|----0-----------0---0-------0-----------0---------0-----------0---------0----|
A|--4-------------------4---4-----------------4---4-----------------4---4------|
D|4---------4-------------4---------4-----------4---------4-----------4--------|
  (sustain bass notes)

            | let ring   |         |           |         |           |
|0-------0-2-4---4--4---0-2---------0---------------------0--------------------|
|--0-2-3-------3------3-----------0---0-----------------0---0-----------------0|
|------------2------2-----------2-------2---2---------2-------2---2---------2--|
|-----------------------------0-----------0---------0-----------0---------0----|
|---------------------------4-----------------4---4-----------------4---4------|
|-------------------------4---------4-----------4---------4-----------4--------|

            |        |            |           |         |           |
|0--------------------0--------0-2-4---4-4---0-2---------0---------------------|
|--0----------------0---0--2-3-----2-3---2-3-----------0---0-----------------0-|
|----2---2--------2----------------------------------2-------2---2---------2---|
|------0--------0----------------------------------0-----------0---------0-----|
|---------4---4----------------------------------4-----------------4---4-------|
|4----------4----------------------------------4---------4-----------4---------|

             |         |           |         |           |            |
|-0---------------------0---------------------0-2-4-5-7-9-10-----7-------5-5---|
|---0-----------------0---0-----------------0----------------7-7---9-9-7-----7-|
|-----2---2---------2-------2---2---------2------------------------------------|
|-------0---------0-----------0---------0--------------------------------------|
|-----------4---4-----------------4---4----------------------------------------|
|-4-----------4---------4-----------4------------------------------------------|

             |         |           |         |           |
|0--------------7----------4h5-2-----4----2-----2-2-0--------1---2---2--4---4--|
|-------7h9-10--------5-7--------0h3--3p2---2p0-------3-0------2---2------2----|
|--7-9------------6h7---------------------------2---------2-1----2------4------|
|------------------------------------------------------------------------------|
|------------------------------------------------------------------------------|
|------------------------------------------------------------------------------|

|2---2--5---5-4---4-4---4-4-----9----9p7----7-12p9-9-9---7-5---5-4---4p2-2-----2-|
|--2------7-----7-----7-----6-----------7h9--------------------------------2-----|
|2------6-----4---------4-6---6-6--7-------------------6-----4-----2---------2-1-|
|--------------------------------------------------------------------------------|
|--------------------------------------------------------------------------------|
|--------------------------------------------------------------------------------|

|0-1-0-------------------2-1-0-0-------------4-2-2-2------0-------0-----5-4-4-4|
|------0h2-3p2p0-2-3p2-0---------0h2-3-3p2-0---------2h-3---3p2-3---3p2--------|
|----1-------------------1-----1-------------2-----2--------------------4-----4|
|------------------------------------------------------------------------------|
|------------------------------------------------------------------------------|
|------------------------------------------------------------------------------|


|-----2-----0-2p0---7-5---9-7---7-5------9-12-10----------------9--------------|
|-3h5---5p3-------3-----5-----------5-10---------------12----------10-10-------|
|-------------------6-----7---9-6----------------11-11----13-13----------11-9--|
|------------------------------------------------------------------------------|
|------------------------------------------------------------------------------|
|------------------------------------------------------------------------------|

|----------------------2-4-5-2-----4-----2---------2-2-1-0-0-0-----------------|
|--------9-10-12-2-3-5---------0h3---3-2---2p0---2-------------0h2h3-2p0-2-3-2-|
|---9-11---------------------------------------2-------------1-----------------|
|12----------------------------------------------------------------------------|
|------------------------------------------------------------------------------|
|------------------------------------------------------------------------------|

    Cresc.
|---2---2--4---4--2---2--5---5--4---4--5---5--4---4--7---7--5---5--7---7--5---5|
|-0---2------4------2------7------5------5------5------9------7------9------7--|
|---2------4------2------6------4------6------4------7------6------7------6----|
|------------------------------------------------------------------------------|
|------------------------------------------------------------------------------|
|------------------------------------------------------------------------------|

|-9----9--10---10--10----------------------------14-9-10------9----------------|
|---10-------9--------10--12--10p9-10-12p10-9-10---------12-9---10----12-9-----|
|-11------10-------10----------------------------------------------11-------10-|
|------------------------------------------------------------------------------|
|------------------------------------------------------------------------------|
|------------------------------------------------------------------------------|

                                                     |(let ring)|
|---------4---4--4------9-----9-7-------12p9-9-9----0-----------------0-2-4---4|
|10---------7------6--------------7-9-10--------------2---2-----0-2-3-------3--|
|---11----5------6---6--6---7---------------------------4-----------------2----|
|------11-------------------------------------------4--------------------------|
|------------------------------------------------------------------------------|
|---------------------------------------------------0--------------------------|

|-4---0-2---------0---------------------0---------------------0----------------|
|---3-----------0---0-----------------0---0-----------------0---0--------------|
|-2-----------2-------2---2---------2-------2---2---------2-------2---2--------|
|-----------0-----------0---------0-----------0---------0-----------0---------0|
|---------4-----------------4---4-----------------4---4-----------------4---4--|
|-------4---------4-----------4---------4-----------4---------4-----------4----|

|-----0-----------0---------------------------------4---4--7---7--2---2--5-2-5-|
|---0---0-------0---0-------0-2---2---2--5---5---5----5------4------3----------|
|-2-------2---2-------2---2-----2---1------------------------------------------|
|-----------0-----------0-----0------------4---6-------------------------------|
|----------------------------------------5----------4-------------2------------|
|-----------------4------------------------------------------------------------|

|-4---4--0---0----0---0--3---3---3--4------4------5---5---5--7-----7------9----|
|------------------------------0---------0------0---0------------------0----10-|
|---4----1------5---4------2-----------3----------0-----6------6-7---6---------|
|----------2-3-----------3----------4---------7--------------6-----------------|
|-0-----------------------------------------------------------------------9----|
|------------------------------------------------------------------------------|

|-9-12---12--7---7--10---10--9-5-------5-7-----------5--2-------2--------------|
|------9-------8-------7---------5---5-----8-------8------2---2-----3-2--------|
|----------------------------------6-----0---7---7----------2-----------0------|
|----------------------------0-----------------9-----4------------0-------4--0-|
|------------7-----------------------------------------------------------------|
|-------------------------------------------------------------------------5----|

|---------------------------------------------0-4-0----------------------------|
|----------------------------0---0-----0-2--2-------0---0--3---3--2-----------0|
|-------0---0---0--2---2---2-----------0----2---------0-------------2-------2--|
|-4---4------------------0-----2---4-4-----------------------4--------2---2----|
|---4-----0---0------0--------------------------------------------------4------|
|-------5----------5---------5-----------4----------2-------------0-----------5|

|---------0--2---------0------------------------------------2-----2p0-----0-5p2|
|---0-2-3------3-----0----2----------3--0-----------------2-----------0h2------|
|-2--------------2-0--------2------2------0--------6--3---------0-----------0--|
|-------------------------0---2--4----------0--3-6------4----------------------|
|------------2---------------------------------4-------------------------------|
|------------------2-------------0------5-------------4------------------------|


|-2-2---7-9-7----7-9-10---12-10-9-------10--7--------0-5--2----------3--0------|
|-------------10------------------10----------8----2--------3----0-3------3-2-0|
|-------0----------------------------11---------9-------------2----------------|
|---------------------------------------------------------0--------------------|
|-------------------------9-----------------7------0--------------------0------|
|-----------------------9----------------------------------------5-------------|

|------------------------------------------------------------------------------|
|------------------------------------------------0-----2----3-----1-----0---0--|
|-2-0--4---4---4--0---0--2-2-----------0-0--2-2-------------0---0-0---2-2------|
|--------5---4-----------4---4-0-4---4------4------0-2---2----3-----0-----0----|
|-------------------2--------------4-------------------------------------------|
|------0----------0----------0---------0---------0----------1-----4-----5------|
                                                                                         
                                                 >slower
|-------------------------0---------------------0---------------------0--------|
|-----------------------0---0-----------------0---0-----------------0---0------|
|----2----------------2-------2---2---------2-------2---2---------2-------2----|
|--0---0--0---------0-----------0---------0-----------0---------0-----------0--|
|4-----2--0-------4-----------------4---4-----------------4---4---------------4|
|------------5--4---------4-----------4---------4-----------4------------------|

              |rest|
|-----------0-------7------7-------------7-------5-----5------------5------3---|
|---------0-----------10-----10-------10---10------8-----8--------8---8------7-|
|-------2----------------7------7----7--------7------5-----5----5-------5------|
|-----0---------------------------11--------------------------9----------------|
|---4---------------9--------------9-------------7------------7------------5---|
|-4---------4------------------------------------------------------------------|

|---3------------3------2-----2---------0-2-0----0-----0------------0------0---|
|-----7----0---7---7------5-----5------------------3-----3--------3---3------3-|
|-7-----7----7-------7------2-----2-0-2-------2------0-----0----0-------0------|
|-------------------------------------------------------------4----------------|
|----------5------------3-----------3------------2------------2------------2---|
|------------------------------------------------------------------------------|

|----0------------------------------------0-----2-----3--------5-------------5-|
|------3----2------------0-----3p0--2-------0-----2-----3--------0-------0-----|
|-0------0----2-------2----0------0---2-------0-----2-----0--------7---7-------|
|---------------2---2--------0----------2----------------------------7---------|
|-----------0-----4------0----------0-----------0------------------------------|
|------------------------------------------------------------0-------------0---|

|--------------7---------0-----5--------------5---------------5---------------3|
|0-------0-------0---8-----------0-------0------0--------0------0-------0------|
|--7---7-----------9-9-0-----------7---7----------7---7-----------7---7--------|
|----7-------------------------------7--------------7---------------7----------|
|------------------------------------------------------------------------------|
|-----------0---------------0--------------0---------------0---------------0---|

|---------------2---------------2-----------0----------------------------------|
|-0---5---0-------0-------0-------0-------0---0----3------2-----------2-3-2---0|
|---5---5-----------4---4-----------4---4-------0----0------2-------2-------2--|
|-----5---------------4---------------4----------------2------2---2------------|
|---------------------------------------------------------------4--------------|
|------------0---------------0--------------0-------------0-----------0--------|

|------------------------------0h2-0-----0-------------0------------0h2-0-----0|
|-2-0-----3-0---2-----------2--2h3-2-----2-3-0---2-3p0-2-2-------2--2h3-2-----2|
|-----0-------0---2-------2----------2h3-------0-------2---2---2----------2h3--|
|-------0-----------2---2------------2h4---------------------4------------2h4--|
|---------------------4--------------------------------------------------------|
|---0-----------0--------------------------------------0-----------------------|
                           (revised 6/25/04->

|-------2------5-----------7p5---------0-7p3p0-------0----------------4p0------|
|-3-0-----3----5-5-------5-----5---------------0---0---10p7---------------0----|
|-----0-----0--6---6---6---------6---6-----------0----------7-------7-------1--|
|--------------------7-------------7--------------------------7---7-----------2|
|---------------------------------------------------------------9--------------|
|--------------0-----------0-------------0-------------0--------------0--------|

                                                                ->)
|------2-----------------------------0--------------------0--------------------|
|---0----3-------------------------0---0----------------0---0-----------------0|
|-1--------2---------------------2------2---2---------2-------2---2---------2--|
|------------4-0---------------0----------0---------0-----------0---------0----|
|----------------0-----------4----------------4---4-----------------4---4------|
|------0-----------4-0-0-2-4---------4----------4---------4-----------4--------|

|0-------0-2-4---4-4---4-4---0-2--------0--------------------0-2-4-5-7-9-10----|
|--0-2-3-----2-3---2-3---2-3-----------0--0-----------------0---------------7-7|
|------------------------------------2------2---2---------2--------------------|
|----------------------------------0----------0---------0----------------------|
|--------------------------------4----------------4---4------------------------|
|------------------------------4--------4-----------4--------------------------|

|-7-----9----------0-----2-4h5-7-----0-2-4-5-2-----4-----2-----2-2p0---------1---|
|---9-9---10-10------3h5---------3p2-----------0h3---3p2---2p0-------3-0-------2-|
|---------------11---------------------------------------------2---------2-1-----|
|--------------------------------------------------------------------------------|
|--------------------------------------------------------------------------------|
|--------------------------------------------------------------------------------|

|-2---2--4---4--2---2--5---5--4---4--4---4--4------9-----9p7--------12p9-9-9----|
|---2------2------2------7------7------7------6--------------7-9-10-------------|
|-2------4------2------6------5------4------6---6--6----------------------------|
|-----------------------------------------------------7-------------------------|
|-------------------------------------------------------------------------------|
|-------------------------------------------------------------------------------|

|-0-------------0-2-4---4-4---0--2---------0-------0-------9------------<12>----|
|---2---2-0-2-3-----2-3---2-3------------0--------------12-----------<12>---<7>-|
|-----4--------------------------------2-------------11-------------------------|
|-4----------------------------------0-----------------------11-12-<7>----------|
|----------------------------------4---------11-12------------------------------|
|-0------------------------------4----------------------------------------------|

 Pizz. Fin
|--------------------------------------||
|--------------------------------------||
|--------------------------------------||
|-4------------------------------------||
|--------------------------------------||
|-4------------------------------------||
Tap to rate this tab
# A B C D E F G H I J K L M N O P Q R S T U V W X Y Z