Song name
# A B C D E F G H I J K L M N O P Q R S T U V W X Y Z

Andrew York - Andecy tab

Title : Andecy
Author : Andrew York
Transcribed by : Michael Neumann

This is a nice meditation song by Andrew York. It appeared on the Perfect Sky
Cd and on the Windham Hill Artist thing. It has some difficult parts but it is
easy to learn. Have fun :-)

Drop-d Tuning

e------------0--------0---------------0--------0-------------0-------0---------|
B--1---------------3----3---1---------------3----3---1-------------3---3---1---|
G-------2----------4----4------2------------4----4-----2-----------4---4-------|
D-----2--------------------------2-----------------------2---------------------|
A--0-------0---0------------0-------0---0------------0-----0---0-----------0---|
D------------------2------------------------2----------------------2-----------|

                Segno (when you repeat from here play this part only one time)
-----------------|--5---------5/7------3---0-------------0-------0-------------|
---------0-----1-|--5------------------0--------1--------------3---3---1-------|
--2--------2-----|*-5--5----------------------------2----------4---4-----2-----|
----2--------2---|*-x----7------------------------2------------------------2---|
-------0---------|--0------0------0-------------0------0---0-----------0-------|
-----------------|---------------------2-----------------------2---------------|

---0------0-------------0------0----------------------5----------5/7-----3----|
--------3---3--1-------------3---3--1--------0----1---5------------------0----|
--------4---4----2-----------4---4-----2-------2------5---5-------------------|
-------------------2---------------------2-------2----x-----7-----------------|
-0---0---------0------0---0---------0-------0---------0--------0-----0--------|
--------2--------------------2-------------------------------------------2----|

-0-------------0--------0-------------0-------0--------------------------0-----|
-----1----------------3---3--1--------------3---3--1--------0-----1--------3---|
----------2-----------4---4----2------------4---4-----2-------2----------------|
--------2------------------------2----------------------2-------2--------------|
-----0-------0---0-----------0------0---0----------0------0------------0-------|
----------------------2---------------------2----------------------------------|

-----------0-------0----------------0---------0----------------0-------0-------|
--1----------1--3----3----1-----------1----3----3----1---------------3---3-----|
--2--2----------4----4----2--2-------------4----4----2--2------------4---4-----|
--3----3-----------------------3---------------------2----2--------------------|
--0--------------------------------------------------0-------0---0-------------|
--0------0------2---------3-------3--------5-------------------------2---------|

--------------------0-------------0--------0-------------0------0--------------|
--1--------0-----1----3-1-----------1--3-----3---1---------1--3---3---1--------|
-----2-------2----------2--2-----------4-----4---2--2---------4---4---2--2-----|
-------2-------2--------3----3------------------------3---------------2----2---|
--0------0---------0----0---------------------------------------------0--------|
------------------------0-------0------2---------3------------5----------------|

---------------------------------------|---------------------------------------|
----1-1-0-----0--------0-1p0-----------|---------------------------------------|
----------2-0----2---2-------2--------*|---------------------------------------|
-------------------2-----------2------*|---------------------------------------|
--0--------------0---------------0-----|---------------------------------------|
---------------------------------------|---------------------------------------|

--8-------8-------------7------7---5-----5-----------3/5----0--------------0--|
----10--------10--------8--8---------5-------3-------0----3--------1----------|
-------9---------9------7----7---------5-------4---------------------2--------|
------------------------9----------------------------------------------2------|
--0---------0-------0---7----------0-------0-----0--------------0--------0----|
-----------------------------------------------------2------------------------|

-----0--------------------------8-------8------------7------7--5--------5------|
--3----3---1--------0-----1-------10---------10------8--8--------5----------3--|
--4----4-----2--------2--------------9----------9----7----7--------5-----------|
---------------2--------2----------------------------9-------------------------|
-----------0-----0--------------0----------0------0--7---------0----------0----|
--2----------------------------------------------------------------------------|

--------3/5-----0-----------0----0------------------------------------------12-|
--------0-----3-----1----------3---3----1--------------------------------------|
-4--------------------2--------4---4-------2-------------------9-10-12---14----|
------------------------2--------------------2---------9-10-12-----------------|
---0--------------0-------0-------------0------0-------------------------------|
--------2----------------------2-----------------------------------------0-----|

------------10-------8-------------8----------7----0--5----3-0-----5------3-0--|
--13-----------12--8----10-12-8-----10----------8-------6------------6---------|
-----14--10----------------------10----10---7--------------------7-----5-------|
-----------------------------------------------------------------0-------------|
-------------------------------------------------------------------------------|
---------------------------------0---------------------------------------------|

                                                   Play the Notes in brackets
                                                   only when you repeat from
                                                   Segno and then go to Coda
                                                          from here
                                                             \/
----1-0---------------------1--------0-----------------------------------------|
--0-----3-1-0----------1----------3----3-----1-------(0)---(1)-----------------|
-----------------2-----2----------4----4-------2-------(2)-------------9-10-12-|
-----------------2--2----------------------------2-------(2)----9-10-12--------|
------3---2------0--------0---0--------------0-----0---------------------------|
----------------------------------2--------------------------------------------|

------12-----------10------8---------------8----------7----0-5----3-0-----5---|
---------13-----------12-8----10-12-8--------10---------8------6--------------|
--14--------14--10----------------------10------10--7-------------------7-----|
------------------------------------------------------------------------0-----|
------------------------------------------------------------------------------|
--0-------------------------------------0-------------------------------------|

                                                            repeat from segno
-------3-0---1-0---------------------1----------0--------------------------|---|
--6--------0-----3--1-0---------1------------3----3---1---------0-----1----|---|
----5---------------------2-----2------------4----4-----2---------2--------|---|
--------------------------2--2----------------------------2---------2------|---|
---------------3----2-----0--------0---0--------------0-------0------------|---|
---------------------------------------------2-----------------------------|---|

Coda :
--5--------5/7---3--0-------------1--------0---------------1--------0---------|
--5--------------0------1----------------3---3----1---------------3---3---1---|
--5--5-----------------------2-----------4---4------2-------------4---4-------|
--x----7-------------------2--------------------------2-----------------------|
--0------0-----0--------0-------0---0-------------0------0---0------------0---|
-----------------2-----------------------2------------------------2-----------|

--------------------5----------5/7-----3---0-----------0------0----------------|
---------0-----1----x--0---------------0-----1---------1----3---3---1----------|
--2--------2--------5----5-------------------2---2----------4---4---2--x-2-----|
----2--------2------0------------------------------3----------------3----------|
-------0------------x----------------------------------------------------------|
--------------------3-------3-------3--2-----3-------3------2-------0------0---|

--0------0----------------1-------0--------------1--------0------------1------|
--1---3----3----1---------------3---3----1-------------3----3--1--------------|
------4----4---------2----------4---4------2-----------4----4----2------------|
-------------------2-------------------------2---------------------2----------|
----------------0-------0---0------------0-----0---0-----------0-----0---0----|
------2-------------------------2----------------------2----------------------|

----0--------------------------------------------------------------------------|
--3---3---1-----0-1p0----------------------------------------------------------|
--4---4-------2-------2--------------------------------------------------------|
------------2-----------2------------------------------------------------------|
----------0---------------0----------------------------------------------------|
--2----------------------------------------------------------------------------|
Tap to rate this tab
# A B C D E F G H I J K L M N O P Q R S T U V W X Y Z