Song name
# A B C D E F G H I J K L M N O P Q R S T U V W X Y Z

Andrew York - 8 Discernments - Walking tab

Author : Andrew York
Title : Walking
Transcribed by : Michael Neumann

Another nice and short piece from the 8 discernements . Have fun !
Michael :-)

Normal Tuning

-----4-4-2-0-----------------0----------4-4-2-0-------------------0-----------|
--0-----------3-0-0--0-1-0-1---3-----0-----------3-------0--1-0-1---3-----3---|
---------------------------------------------------2-2------------------------|
---------------------------------0---2-----------0----------------------------|
--------------2--------0------------------------------------0---------2-------|
--0-------------------------------------(0)-----------------------------------|

                           *
--0---0-3--2----0----------|----3-3----------2-2-----0-0-----------------3-3---|
----3--------3--0------0---|--1------0-1---3-----0-0-----1-0-----3-----1-------|
-------------------1-2-1--*|---------------------------------2---2-------------|
-----------0----2---------*|-----------------------------------0-0-0-----------|
--3------------------------|--0------------2-------3-------------------0-------|
---------------------------|---------------------------------------------------|


--------2---3-----0----0----------------||-------------------------------------|
-0-1--3---0-----1----0-----------0-1----||-------------------------------------|
--------------------------2------------*||-------------------------------------|
------0---2---------------0--4-0-------*||-------------------------------------|
----------------0----3------------------||-------------------------------------|
----------------------------------------||-------------------------------------|


Order -
Play the first part and repeat it as it is noticed.
The brackets (0) mean in this case that you don't
play the note the first time you go through the first part.
Then continue with the second part.
Then repeat from the beginning and end at the * .
Tap to rate this tab
# A B C D E F G H I J K L M N O P Q R S T U V W X Y Z