Song name
# A B C D E F G H I J K L M N O P Q R S T U V W X Y Z

Andrius Mamontovas - Tu Likai Lietuje tab

Help us improve GuitareTab! Take a short survey!
 Intro
|-----0----------|-----0------0----|
|----4-4-----4---|----4-4-------4--|
|---4---4---4--4-|---4---4---4---4-|
|--2-----2-2--2--|--2-----2-2--2---|
|-4-------4------|-0-------0-------|
|----------------|-----------------|

Pavyzdys:
|-----0----------|-----0------0----|
|----4-4-----4---|----4-4-------4--|
|---4---4---4--4-|---4---4---4---4-|
|--2-----2-2--2--|--2-----2-2--2---|
|-4-------4------|-0-------0-------|
|----------------|-----------------|
                            Tu likai lietuje

|-----0----------|-----0------0----|
|----4-4-----4---|----4-4-------4--|
|---4---4---4--4-|---4---4---4---4-|
|--2-----2-2--2--|--2-----2-2--2---|
|-4-------4------|-0-------0-------|
|----------------|-----------------|
            Jei as sugrizciau Senam laive…

Priedainis:

|-----0-------0-------2-------2------|
|----0-0-----0-0-----0-0-----0-0-----|
|---2---2---2---2---2---2---2---2----|
|--2-----2-2-----2-1-----1-1-----1---|
|-2-------2-------2-------2-------2--|
|------------------------------------|
       Tam kad…  sparnu.

Zodziai:

Tu likai lietuje
Jei aš sugrįžčiau
Pas tave atgal
Senam laive
Arba upės dugnu
Iš kito kranto
Kuriame šviesa
Lyg debesų

Tam, kad skristum, tau nereik sparnų
Užtenka dangaus
Mūsų rankos pilnos paslapčių
Tylėk, jei kas klaus

Jau artėja diena
Kai rojaus sodai
Tyliai kris žemyn
Ir tirps delne
Ir šaltinio vanduo
Ankstyvą rytą
Mano akyse
Paliks tave

Tam, kad skristum, tau nereik sparnų
Užtenka dangaus
Mūsų rankos pilnos paslapčių
Tylėk, jei kas klaus

Klaus...

Ar tu žinai?
Tavo vardo gale
Viena raidė
Visad reikš mane

(2 kartus.)
Tam, kad skristum, tau nereik sparnų
Užtenka dangaus
Mūsų rankos pilnos paslapčių
Tylėk, jei kas klaus

Klaus...
Related for Tu Likai Lietuje tab