Song name
# A B C D E F G H I J K L M N O P Q R S T U V W X Y Z

Andrius Mamontovas - Saldijuodanaktis tab

Help us improve GuitareTab! Take a short survey!
Andrius Mamontovas-Saldi.Juoda.Naktis.

Stulpelis:

         e|-------------------------0------------------------------0-------|
         B|----------------------------------------------------------------|
         G|--------------13-------------13----------------13-----------13--|
         D|---------11---------11-----------11-------11--------11----------|
         A|----12----------------------------------------------------------|
         E|----------------------------------------------------------------|

         e|--------------------------0----------------------------0---------|
         B|-----------------------------------------------------------------|
         G|----------------13-------------13----------------13-----------13-|
         D|-----------11-------11------------11--------11-------11----------|
         A|-----------------------------------------------------------------|
         E|----0----------------------------------(0)-----------------------|

Priedainis:

|----------0-------|---------0-------|----------0-------|---------0-------|
|--------5---5-----|-------5---5-----|--------0---0-----|-------0---0-----|
|------4-------4---|-----4-------4---|------4-------4---|-----4-------4---|
|----2-----------2-|---2-----------2-|----2-----------2-|---2-----------2-|
|--4---------------|-0---------------|------------------|-----------------|
|------------------|-----------------|-0----------------|-0---------------|
Related for Saldijuodanaktis tab