Song name
# A B C D E F G H I J K L M N O P Q R S T U V W X Y Z

Androids - Do It With Maddona tab

Tabbed By ho3z

These are the only riffs I could figure out from the song
(cant figure out the solo sorri dudez)

*** First ever tab done for the internet ***

Still not sure if the chorus is correct play around with it

Intro
e||--------------------------|
B||--------------------------|
G||--------------------------|
D||----5-5--0-5--0-----------|
A||----5-5--0-5--0-----------|
E||----3-3--0-3--0-----------|

Verse
e||--------------------------|--------------------------|
B||--------------------------|--------------------------|
G||--------------------------|----5-5--0-5-5--0---------|
D||----5-5--0-5--0-----------|----5-5--0-5-5--0---------|
A||----5-5--0-5--0-----------|----3-3--0-3-3--0---------|
E||----3-3--0-3--0-----------|--------------------------|

e||--------------------------|
B||--------------------------|
G||----3-3--0-3-3--0---------|
D||----3-3--0-3-3--0---------|
A||----1-1--0-1-1--0---------|
E||--------------------------| Repeat verse 2x

Chorus
e||--------------------------|--------------------------|
B||--------------------------|--------------------------|
G||--------------------------|---10-10-10-10-10-10------|
D||----5-5-5-5-5-5-----------|---10-10-10-10-10-10------|
A||----5-5-5-5-5-5-----------|----8--8--8--8--8--8------|
E||----3-3-3-3-3-3-----------|--------------------------|

e||--------------------------|--------------------------|
B||--------------------------|--------------------------|
G||---9-9-9-9-9-9------------|----7--7--7--7--7--7------|
D||---9-9-9-9-9-9------------|----7--7--7--7--7--7------|
A||---7-7-7-7-7-7------------|----5--5--5--5--5--5------|
E||--------------------------|--------------------------|

e||--------------------------|--------------------------|
B||--------------------------|--------------------------|
G||----5-5-5-5-5-5-----------|----3-3-3-3-3-3-----------|
D||----5-5-5-5-5-5-----------|----3-3-3-3-3-3-----------|
A||----3-3-3-3-3-3-----------|----1-1-1-1-1-1-----------|
E||--------------------------|--------------------------|

e||--------------------------|
B||--------------------------|
G||--------------------------|
A||----5-5-5-5-5-5-----------|
A||----5-5-5-5-5-5-----------|
E||----3-3-3-3-3-3-----------| Then back to verse
Tap to rate this tab
# A B C D E F G H I J K L M N O P Q R S T U V W X Y Z