Guitaretab - guitar tabs
Song name
# A B C D E F G H I J K L M N O P Q R S T U V W X Y Z

Andromeda - The Words Unspoken tab

Tabbed by: Mikael Holmberg (Micke H)
Andromeda
The Words Unspoken
Tuning:D

Riff A1
|  |   |   |   |   |   |   |   |   |   |   |   |   |   |   
|------12--10--------12--10--------12--10--------12--10--| d           
|--12------------12------------12------------12----------| a          
|9---9---9---9-9---9---9---9-9---9---9---9-9---9---9---9s| f           
|--------------------------------------------------------| c            
|--------------------------------------------------------| g           
|--------------------------------------------------------| d                         
|    pm  pm  pm..  pm  pm  pm..  pm  pm  pm..  pm  pm     
|  |   |   |   |   |   |   |   |   |   |   |   |   |   | |
|------8---7---------8---7-------------------------------| d
|--8-------------8-----------------10--8-----7---8-------| a
|5---5---5---5-5---5---5---5---9---------------------7---| f
|----------------------------7---7---7---7-7---7---7---7-| c
|--------------------------------------------------------| g
|--------------------------------------------------------| d
|    pm  pm  pm..  pm  pm  pm..  pm  pm  pm..  pm  pm  pm  

Play 2 times alone and 2 times with A2
Riff A2
|  |   |   |   |   |   |   |   |   |   |   |   |   |   | |
|--------------------------------------------------------| d
|--------------------------------------------------------| a
|--------------------------------------------------------| f
|--2---2---2--<----------------2---2---2--<--------------| c
|--2---2---2--<----------------2---2---2--<--------------| g
|--0---0---0--<----------------0---0---0--<--------------| d
|
|--------------------------------------------------------| d
|--------------------------------------------------------| a
|--5---5---5--<------------------------------------------| f
|--5---5---5--<----------------7---7---7--<--------------| c
|--3---3---3--<----------------7---7---7--<--------------| g
|------------------------------5---5---5--<--------------| d

Riff during Solo 1
|  |   |   |   |   |   |   |   |   |   |   |   |   |   | |
|--------------------------------------------------------| d
|--------------------------------------------------------| a
|--------------------------------------------------------| f
|--2---2---2-------------------2---2---2-----------------| c
|--2---2---2-------------------2---2---2-----------------| g
|--0---0---0-------------------0---0---0-----------------| d
|
|--------------------------------------------------------| d
|--------------------------------------------------------| a
|--5---5---5---------------------------------------------| f
|--5---5---5-------------------7---7---7-----------------| c
|--3---3---3-------------------7---7---7-----------------| g
|------------------------------5---5-
[ Tab from: http://www.guitaretab.com/a/andromeda/35672.html ]
Related for The Words Unspoken tab
Advertisement will be closed in 10 seconds