Andy B White - This Is Your Place tab

This Is Your Place
by Andy B White
www.andybwhite.com


(/) Slide Up  (\) Slide Down  (h) Hammer On  (p) Pull Off  (b) Bend (r) Release (v) Vibrato


You can hear this song on ABW's Myspace here : http://www.myspace.com/musicbyandybwhite


Tuning : Standard


Capo on 2nd fret


Verse/Chorus:
Chords:  C									G
E|----x------------------------------------3---3--------3----------3----------3-----|
B|----1--1--------0h1--------1--------0----0------0--------0----------0----------0--|
G|----0-----0----------0--------0----------0----------------------------------------|
D|----2------------------------------------0----------------------------------------|
A|----3--------3----------3--------3-------2------------------0h2--------0h2--------|
E|----x------------------------------------3---------3------------------------------|

Chords: Am										F   G/F
E|----0----------------------------------------x-----------------0--------x--------|
B|----1--1--------1-----0h1-------------1------1--1--------1-----1--1-----1--1-----|
G|----2-----2--------2-------2-----0h2-----2---2-----2--------2--2-----2--0-----0--|
D|----2--------2----------------2--------------3--------3--------3--------0--------|
A|----0----------------------------------------x-----------------x--------2--------|
E|----x----------------------------------------x-----------------x--------3--------|

Bridge:
Chords:Em                                E/B
E|----x------------------------------------------------------------------------|
B|----0------------------------------------------------------------------------|
G|----0-0--------0--------0--------0--------1--------1-----0h1--------1--------|
D|----2----2--------2--------2--------2--------2--------2-------2--------2-----|
A|----2-------2--------2--------2--------3--------3----------------3--------3--|
E|----x------------------------------------------------------------------------|

Chords: Am										Am/E
E|----0----------------------------------------x----------------------------------|
B|----1--1--------1-----0h1-------------1------x--1-------1--------1--------1-----|
G|----2-----2--------2-------2-----0h2-----2---0-----0-------0--------0--------0--|
D|----2--------2----------------2--------------0-------------------------0--------|
A|----0----------------------------------------2--------2-------2-----------------|
E|----x----------------------------------------x----------------------------------|


Lyrics+Chords:
C                             G                   Am               F        F/G
The lakes are frozen with ice, and the beach is white with snow these days.
C                           G                     Am               F          F/G
      But still I walk and I wait for summer's changing waves and your face.
C            G                   Am                   F                      F/G
   This is your place.  Why must I wait?  Can't you find yourself and stay?
C            G                   Am                   F                      F/G
   This is your place.  Why must I wait?  Can't you find yourself and stay?

V2:
What could the coastline hold, or the mountain roads say besides, "Come home"?
You said your place was by my side.  Is there more to know?  Is there more to try?
This is your place.  Why must I wait?  Can't you find yourself and stay?
This is your place.  Why must I wait?  Can't you find yourself and stay?

Bridge:
Em    E/B                  Am              Am/E
Oh, grow up dear.  We'll always fear the rain.
Em        E/B               Am                Am/E
And this time apart only allows your heart to fade.


Final Chorus:
C            G                   Am                   F                      F/G
   This is your place.  Why must I wait?  Can't you find yourself and stay?
C            G                   Am                   F                      F/G
   This is your place.  Why must I wait?  Can't you find yourself and stay?
Tap to rate this tab
 
# A B C D E F G H I J K L M N O P Q R S T U V W X Y Z