Song name
# A B C D E F G H I J K L M N O P Q R S T U V W X Y Z

Andy Cherry - Our Gods Alive tab

-------------------------------------------------------------------------------
                    OUR GOD'S ALIVE - Andy Cherry (Intro Tab)
-------------------------------------------------------------------------------
Tabbed by: YK

Tuning: Standard

e|-------0----------------------------0--------------------------------------|
B|----------3---0-------------------------3---0------------------------------|
G|-----------------2---0-----0-------------------2---0-----0-----------------|
D|---0h2--0---0--0---0---0-0---0-0--0---0---0--0---0---0-0---0-0-------------|
A|---------------------------------------------------------------------------|
E|---------------------------------------------------------------------------|

Repeat 3x
Tap to rate this tab
 
# A B C D E F G H I J K L M N O P Q R S T U V W X Y Z