Song name
# A B C D E F G H I J K L M N O P Q R S T U V W X Y Z

Andy Davis - Please Turn Red tab

Help us improve GuitareTab! Take a short survey!
 (intro/verse)
|---------------------------------------------------------------|
|----3---------3-----3---------3-----3---------3---------3------|
|----2---------2-----2---------2-----2---------2---------2------|
|---------------------------------------------------------------|
|----------------2-2---2-2-0-0-------------2-2---2-2-0-0---0-0--|
|0-0---0-0-5-5-------------------5-5---5-5----------------------|

 (chorus)
|---------------------------------------------------------------|
|---------------------------------------------------------------|
|-----7-7-7-7-7-7-7-7-7-7-7-7-7-7-7-7-7-7-7-7-7-7-7-7-7-7-7-7---|
|-----7-7-7-7-7-7-7-7-7-7-7-7-7-7-7-7-7-7-7-7-7-7-7-7-7-7-7-7---|
|-----0-0-0-0-0-5-5-5-5-5-9-9-9-9-9-7-7-7-7-7-5-5-9-9-7-7-0-0---|
|-----0-0-0-0-0-5-5-5-5-5-9-9-9-9-9-7-7-7-7-7-5-5-9-9-7-7-0-0---|

The strum pattern isn't exact so you'll need to listen to the song.
Related for Please Turn Red tab