Song name
# A B C D E F G H I J K L M N O P Q R S T U V W X Y Z

Andy Davis - Laugh So You Dont Cry tab

Help us improve GuitareTab! Take a short survey!
Highlighted       Show chord diagrams
-------------------------------------------------------------------------------
			     LAUGH SO YOU DON'T CRY - Andy Davis
-------------------------------------------------------------------------------
Tabbed by: Matt
Email: mg62188@bellsouth.net

Great song. My first tab. Still working on the intro.

Chords Used
     G     D    D/C#   Bm7    Asus    
   Em7
e|---3-----2-----0------0-------0-----0------0------------------------------|
B|---3-----3-----3------3-------3-----2------3------------------------------|
G|---0-----2-----2------2-------0-----0------0------------------------------|
D|---0-----0-----0------0-------2-----2------0------------------------------|
A|---2-----X-----4------2-------0-----0------2------------------------------|
E|---3-----X-----X------X-------X-----X------0------------------------------|

Tuning: Standard

Intro:
e|---------------------------------------------------------------------------|
B|---------------------------------------------------------------------------|
G|---------------------------------------------------------------------------|
D|---------------------------------------------------------------------------|
A|---------------------------------------------------------------------------|
E|---------------------------------------------------------------------------|

Verse:
             D   D/C#   Bm7     Asus
We'll rent a comedy, rewind the best parts,
         G             D    G
And we'll memorize the lines.
          D     D/C#    Bm7     Asus
I'll call everyone and they can come over
         G                Asus     A7
If it keeps things off your mind.
G           D     Asus   A7
Hey I've got a couple ideas
G       D        Asus      A7
Tell me if you're up for this

CHORUS:
   G                D     D/C#
Well Try my best to be funny yeah
G                 D     D/C#
You forget for a while
Bm7                Em7
Wrote a song for you honey
G                 G
You should laugh so you don't cry
G               G       D
Laugh so you don't cry.

VERSE 2:
You used to love when I came up with surprises
And would drag you off someplace
Let's get you in the car and out of this house
Cause I miss the smile on your face
And I'm here to keep that chin up
It looks like you need cheering up

CHORUS:
     G              D     D/C#
Well try my best to be funny yeah
G                 D     D/C#
You forget for a while
Bm7                Em7
Wrote a song for you honey
G                 G
You should laugh so you don't cry
G               G             G          Bm7
Laugh so you don't cry, so you don't cry

BRIDGE:
Bm7            Bm7
We're not kissing good-bye
G        G
What happened?
Bm7            Bm7
The only tears you should cry
G        Asus
Cry laughing
Bm7                Asus                  Asus      A7
I think it's about time that you get yourself out of hiding
Asus     A7    (build up)
Out of hiding

CHORUS:
G                 D     D/C#
Try my best to be funny yeah
G                 D     D/C#
You forget for a while
Bm7                Em7
Wrote a song for you honey
G                 G
You should laugh so you don't cry
G               G
Laugh so you don't cry

REFRAIN:
D        D/C#      Bm7      Em7
This is it this your song baby
G                 Em7     Asus  D
Look outside, the sun is shining
D          D/C#    Bm7        Em7
Are you there? Can I come in baby?
Em7       G
Crack a smile
       Em7       Asus  A7    D
You don't have to hide it, well

CHORUS:
G                 D     D/C#
Try my best to be funny yeah
G                 D     D/C#
You forget for a while
Bm7                Em7
Wrote a song for you honey
G                    G
You should laugh so you don't cry...
G                  G
You should laugh so you don't cry
G              G         D
Laugh so you don't cry
D      Em7        D
So you don't cry

OUTRO:
e|---------------------------------------------------------------------------------------|
B|-3--2--3--3h5--5/7--7\5--3--3--2--3----------------------------------------------------|
G|--------------------------------------3/4--2--3/4--2---0-------------------------------|
D|----------------------------------------------4/5--4---2--2/4--------------------------|
A|---------------------------------------------------------------------------------------|
E|---------------------------------------------------------------------------------------|
Related for Laugh So You Dont Cry tab