Song name
# A B C D E F G H I J K L M N O P Q R S T U V W X Y Z

Andy Grammer - The Heavy And The Slow tab

'The Heavy and the Slow' by 'Andy Grammer'
I hope you enjoy it, good luck!
Capo 2nd fret

   Intro
E |--------------------------------------|--------------------------------------|
B |--------------------------------------|--------------------------------------|
G |--7---6-6---4---2----0---2-2---0---6--|--7---6-6---4---2----0---2-2---0---6--| 2X
D |--------------------------------------|--------------------------------------|
A |--------------------------------------|--------------------------------------|
E |--7---5-5---3---2----0---2-2---0---5--|--7---5-5---3---2----0---2-2---0---5--|


   Verse
E |--------------------------------------|--------------------------------------|
B |--------------------------------------|--------------------------------------|
G |--7---6-6---4---2----0---2-2---0---6--|--7---6-6---4---2----0---2-2---0---6--| 2X
D |--------------------------------------|--------------------------------------|
A |--------------------------------------|--------------------------------------|
E |--7---5-5---3---2----0---2-2---0---5--|--7---5-5---3---2----0---2-2---0---5--|

E |--------------------------------------|--------------------------------------|
B |--------------------------------------|--------------------------------------|
G |--7---6-6---4---2----0---2-2---0---6--|--7---6-6---4---2----0---2-2---0---6--| 2X
D |--7---5-5---3---2----0---2-2---0---5--|--7---5-5---3---2----0---2-2---0---5--|
A |--x---x-x---x---x----0---x-x---0---x--|--x---x-x---x---x----0---x-x---0---x--|
E |--7---5-5---3---2----0---2-2---0---5--|--7---5-5---3---2----0---2-2---0---5--|

E |--------------------------------------|--------------------------------------|
B |--------------------------------------|--------------------------------------|
G |--7---------9--------11--------9------|--7---------9--------11--------9------| 
D |--------------------------------------|--------------------------------------|
A |--5---------7--------7---------7------|--5---------7--------7---------7------|
E |--7---------9--------10--------9------|--7---------9--------10--------9------|



E |--------------------------------------|--------------------------------------|
B |--------------------------------------|--------------------------------------|
G |--7---6-6---4---2----0---2-2---0---6--|--7---6-6---4---2----0---2-2---0---6--| 3X
D |--------------------------------------|--------------------------------------|
A |--------------------------------------|--------------------------------------|
E |--7---5-5---3---2----0---2-2---0---5--|--7---5-5---3---2----0---2-2---0---5--|

E |--------------------------------------|--------------------------------------|
B |--------------------------------------|--------------------------------------|
G |--7---6-6---4---2----0---2-2---0---6--|--7---6-6---4---2----0---2-2---0---6--| 2X
D |--7---5-5---3---2----0---2-2---0---5--|--7---5-5---3---2----0---2-2---0---5--|
A |--x---x-x---x---x----0---x-x---0---x--|--x---x-x---x---x----0---x-x---0---x--|
E |--7---5-5---3---2----0---2-2---0---5--|--7---5-5---3---2----0---2-2---0---5--|

E |--------------------------------------|--------------------------------------|
B |--------------------------------------|--------------------------------------|
G |--7---------9--------11--------9------|--7---------9--------11--------9------| 
D |--------------------------------------|--------------------------------------|
A |--5---------7--------7---------7------|--5---------7--------7---------7------|
E |--7---------9--------10--------9------|--7---------9--------10--------9------|

E |--------------------------------------|--------------------------------------|
B |--------------------------------------|--------------------------------------|
G |--7---6-6---4---2----0---2-2---0---6--|--7---6-6---4---2----0---2-2---0---6--| 
D |--------------------------------------|--------------------------------------|
A |--------------------------------------|--------------------------------------|
E |--7---5-5---3---2----0---2-2---0---5--|--7---5-5---3---2----0---2-2---0---5--|


   Bridge
E |--------------------------------------|--------------------------------------|
B |--------------------------------------|--------------------------------------|
G |--7--7-7--7-7-7-7---4--4-4--4-4-4-4---|-11-11-11-11-11-11-11---12----11----9-| 2X
D |--7--7-7--7-7-7-7---2--2-2--2-2-2-2---|-9--9--9--9--9--9--9----x-----x-----x-|
A |--x--x-x--x-x-x-x---2--2-2--2-2-2-2---|-9--9--9--9--9--9--9----10----9-----7-|
E |--7--7-7--7-7-7-7---3--3-3--3-3-3-3---|-10-10-10-10-10-10-10---12----10----9-|



E |--------------------------------------|--------------------------------------|
B |--------------------------------------|--------------------------------------|
G |--7---6-6---4---2----0---2-2---0---6--|--7---6-6---4---2----0---2-2---0---6--| 2X
D |--------------------------------------|--------------------------------------|
A |--------------------------------------|--------------------------------------|
E |--7---5-5---3---2----0---2-2---0---5--|--7---5-5---3---2----0---2-2---0---5--|

E |--------------------------------------|--------------------------------------|
B |--------------------------------------|--------------------------------------|
G |--7---------9--------11--------9------|--7---------9--------11--------9------| 
D |--------------------------------------|--------------------------------------|
A |--5---------7--------7---------7------|--5---------7--------7---------7------|
E |--7---------9--------10--------9------|--7---------9--------10--------9------|


   End
E |--------------------------------------|--------------------------------------|
B |--------------------------------------|--------------------------------------|
G |--7---6-6---4---2----0---2-2---0---6--|--7---6-6---4---2----0---2-2---0---6--| 2X
D |--------------------------------------|--------------------------------------|
A |--------------------------------------|--------------------------------------|
E |--7---5-5---3---2----0---2-2---0---5--|--7---5-5---3---2----0---2-2---0---5--|




Something like that
Tap to rate this tab
# A B C D E F G H I J K L M N O P Q R S T U V W X Y Z