Song name
# A B C D E F G H I J K L M N O P Q R S T U V W X Y Z

Andy Grammer - Stepping Stones chords

Highlighted       Show chord diagrams
Stepping Stones by Andy Grammer

E|----x-----x----x----x----x----|
B|----x-----x----x----x----x----|
G|----8-----6----4----6----8----|
D|----4-----4----4----4----4----|
A|----x-----x----x----x----x----|
E|----7-----6----4----6----7----|


Pre-Chorus:

      E      G#m7    F#

E|----0-------x------2------|
B|----0-------x------2------|
G|----1-------4------3------|
D|----2-------4------4------|
A|----2-------x------4------|
E|----0-------4------2------|


If you want more than just these chords, message me and I'll take the time to figure 
them out.

Tabbed by: Jantzen Knight
Tap to rate this tab
# A B C D E F G H I J K L M N O P Q R S T U V W X Y Z