Song name
# A B C D E F G H I J K L M N O P Q R S T U V W X Y Z

Andy Grammer - Biggest Man In Los Angeles tab

Just a basic tab. He doesn't play the notes on the D string during the verse but I 
like the sound better so I put it in there. If there is anything wrong let me know. Enjoy.

Biggest man in Los Angeles: Andy Grammer

Capo 5th fret

Verse:
E |--------------------------------------0----0-0-0-0--|
B |--------------------------------------0----3-3-3-3--|
G |--------5----4---4-4-4-4---2---2-2----0----0-0-0-0--|
D |--------5----5---5-5-5-5---0---0-0----2----2-2-2-2--|
A |--------x----x---x-x-x-x---x---x-x----2----2-2-2-2--|
E |--2/5---5----3---3-3-3-3---2---2-2----0----0-0-0-0--|

E |--------------------------------------0----0-0-|
B |--------------------------------------0----3-3-|
G |--------5----4---4-4-4-4---2---2-2----0----0-0-|
D |--------5----5---5-5-5-5---0---0-0----2----2-2-|
A |--------x----x---x-x-x-x---x---x-x----2----2-2-|
E |--2/5---5----3---3-3-3-3---2---2-2----0----0-0-|

Pre-Chorus:
E |---------------------------------------------------------|
B |---------------------------------------------------------|
G |--5------------4--------------2-----------0--------------|
D |--5------------5--------------0-----------2--------------|
A |--x------------x--------------x-----------2--------------|
E |--5------------3--------------2-----------0--------------|

E |-----------------------------------------|
B |-----------------------------------------|
G |--5------------4--------------2-2-2-2-2--|
D |--5------------5--------------0-0-0-0-0--|
A |--x------------x--------------x-x-x-x-x--|
E |--5------------3--------------2-2-2-2-2--|

Chorus
E |----3---3-3---3---3-3-3-3--------------3---3-3-3-3---|
B |----3---3-3---3---3-3-3-3---1---1-1----3---3-3-3-3---|
G |----0---0-0---0---0-0-0-0---2---2-2----0---0-0-0-0---|
D |----0---0-0---2---2-2-2-2---2---2-2----2---2-2-2-2---|
A |----2---2-2---3---3-3-3-3---0---0-0----3---3-3-3-3---|
E |----3---3-3------------------------------------------|





Bridge
E |-------------------------------------------------|
B |--1--1-1-1--1-1-1---1-1---0--0-0-0--0-0-0---0-0--|
G |--2--2-2-2--2-2-2---2-2---0--0-0-0--0-0-0---0-0--|
D |--2--2-2-2--2-2-2---2-2---2--2-2-2--2-2-2---2-2--|
A |--0--0-0-0--0-0-0---0-0---2--2-2-2--2-2-2---2-2--|
E |--------------------------0--0-0-0--0-0-0---0-0--|

E |-------------------------------------------------|
B |--1--1-1-1--1-1-1---1-1---3--3-3-3--3-3-3---3-3--|
G |--2--2-2-2--2-2-2---2-2---0--0-0-0--0-0-0---0-0--|
D |--2--2-2-2--2-2-2---2-2---2--2-2-2--2-2-2---2-2--|
A |--0--0-0-0--0-0-0---0-0---2--2-2-2--2-2-2---2-2--|
E |-------------------------------------------------|

E |-------------------------------------------------|
B |--1--1-1-1--1-1-1---1-1---0--0-0-0--0-0-0---0-0--|
G |--2--2-2-2--2-2-2---2-2---0--0-0-0--0-0-0---0-0--|
D |--2--2-2-2--2-2-2---2-2---2--2-2-2--2-2-2---2-2--|
A |--0--0-0-0--0-0-0---0-0---2--2-2-2--2-2-2---2-2--|
E |--------------------------0--0-0-0--0-0-0---0-0--|

E |---------------------------------------------|
B |--1--1-1-1--1-1-1---1-1---3--3-3-3-3-3-3--3--|
G |--2--2-2-2--2-2-2---2-2---0--0-0-0-0-0-0--0--|
D |--2--2-2-2--2-2-2---2-2---2--2-2-2-2-2-2--2--|
A |--0--0-0-0--0-0-0---0-0---3--3-3-3-3-3-3--3--|
E |---------------------------------------------|

Order: 
Verse
Pre-chorus
Chorus
Verse
Pre-chorus
Chorus
Verse pattern 
Bridge
Chorus (A cappella)
Chorus
Verse pattern 2x
end.
Tap to rate this tab
# A B C D E F G H I J K L M N O P Q R S T U V W X Y Z