Andy Hillstrand - Ode To Phil chords

Highlighted       Show chord diagrams
Here's the tab for the introduction section of the song before Andy starts singing. I'm
still a little sketchy about the last part as I feel as if I am missing a note or two
btu this is as close to the last part as I could get. If anyone else has figured out the 
end section of the introduction before the audio feel free to e-mail or post 
corrections in
the comments section =)If the tab is difficult to read please let me know. The first 
line of the B string introduction is played twice before playing along the G string.

Introduction Tab (order from lowest string E to highest string E):

E|---------------------------------------------------------------|
B|----5-7-8-8-8-8-7-5-3------------------------------------------| repeat 2x
G|-----------------------7-7-5-4-2-0-----------------------------|
D|---------------------------------------------------------------|
A|---------------------------------------------------------------|
E|---------------------------------------------------------------|

Chords:

G
I lost a good friend today.
D
Captain Phil youíre on your way.
Am
Up to the fishing grounds
C
wonít have nobody around.
G
Pots full of fishing thatís gold
D
brand new stories are told.
Am
Calm seas all around
C
nobodyís gonna set ya down.

CHORUS:

Am
As the eagle flies
C
fishing men now donít you cry.
G
Your life is short,
your name lives on,
D
two boys to carry on.
Am
As the eagle flies
C
fishing men now you donít you cry.
G
you lived hard, strong as steel
C
weíre gonna miss you, Phil.

E--------------------------------------------------------------------------|
B|----5-7-8-8-8-8-7-5-3------------------------------------------| repeat--| 2x
G|-----------------------7-7-5-4-2-0---------------------------------------|
D|-------------------------------------------------------------------------|
A|-------------------------------------------------------------------------|
E|-------------------------------------------------------------------------|

G
Two boys left on their own.
D
Got a good throw to go.
Am
You know heís looking down
C
sun shining when theyíre on his grounds.
G
He left us way too soon.
D
Didnít get to say goodbye.
Am
Just like my dad before you,
C
one day weíll meet eye to eye.

CHORUS:

Am
As the Eagle flies
C
fishing men now don't you cry.
G
your life is short, your name lives on
D
Two boys to carry on.
Am
As the Eagle flies
C
fishing men now don't you cry.
G
Storm rages on and on
D
gotta keep fishing on.
Am
As the Eagle flies,
C
fishing men now don't you cry.
G
Your life is short, your name lives on
D
two boys to carry on.
Am
As the Eagle flies
C
fishing men now don't you cry.
G
Storm rages on and on
D
gotta keep fishing on.
Am
As the Eagle flies
C
fishing men now don't you cry.
G
Lived hard, you're strong as steel
D
We're gonna miss ya, Phil.

Am, C, G, D - repeat 2x and you can end on the G chord if you like. I prefer ending on G
because it gives the end a nice ring to it =)


Andy Hillstrand (Deadliest Catch) website: http://www.timebandit.tv/
Tap to rate this tab
 
# A B C D E F G H I J K L M N O P Q R S T U V W X Y Z